  0
SECTION
  2
HEADER
  9
$ACADVER
  1
AC1009
  9
$DWGCODEPAGE
  3
dos932
  9
$INSBASE
 10
0.0
 20
0.0
 30
0.0
  9
$EXTMIN
 10
-177.056305
 20
-160.0
 30
0.0
  9
$EXTMAX
 10
187.9226
 20
213.805498
 30
0.0
  9
$LIMMIN
 10
-177.056305
 20
-160.0
  9
$LIMMAX
 10
187.9226
 20
213.805498
  9
$ORTHOMODE
 70
     0
  9
$REGENMODE
 70
     1
  9
$FILLMODE
 70
     1
  9
$QTEXTMODE
 70
     0
  9
$MIRRTEXT
 70
     1
  9
$DRAGMODE
 70
     2
  9
$LTSCALE
 40
1.0
  9
$OSMODE
 70
     0
  9
$ATTMODE
 70
     1
  9
$TEXTSIZE
 40
4.1656
  9
$TRACEWID
 40
0.05
  9
$TEXTSTYLE
  7
MX_NOTE_STANDARD
  9
$CLAYER
  8
0
  9
$CELTYPE
  6
CONTINUOUS
  9
$CECOLOR
 62
   256
  9
$DIMSCALE
 40
1.0
  9
$DIMASZ
 40
2.5
  9
$DIMEXO
 40
0.5
  9
$DIMDLI
 40
3.75
  9
$DIMRND
 40
0.0
  9
$DIMDLE
 40
0.0
  9
$DIMEXE
 40
1.0
  9
$DIMTP
 40
0.0
  9
$DIMTM
 40
0.0
  9
$DIMTXT
 40
2.5
  9
$DIMCEN
 40
2.5
  9
$DIMTSZ
 40
0.0
  9
$DIMTOL
 70
     0
  9
$DIMLIM
 70
     0
  9
$DIMTIH
 70
     0
  9
$DIMTOH
 70
     0
  9
$DIMSE1
 70
     0
  9
$DIMSE2
 70
     0
  9
$DIMTAD
 70
     1
  9
$DIMZIN
 70
     8
  9
$DIMBLK
  1

  9
$DIMASO
 70
     1
  9
$DIMSHO
 70
     1
  9
$DIMPOST
  1

  9
$DIMAPOST
  1

  9
$DIMALT
 70
     0
  9
$DIMALTD
 70
     4
  9
$DIMALTF
 40
0.03937
  9
$DIMLFAC
 40
1.0
  9
$DIMTOFL
 70
     1
  9
$DIMTVP
 40
0.0
  9
$DIMTIX
 70
     0
  9
$DIMSOXD
 70
     0
  9
$DIMSAH
 70
     1
  9
$DIMBLK1
  1
_OPEN30
  9
$DIMBLK2
  1
_OPEN30
  9
$DIMSTYLE
  2
MXDIMSTYLE
  9
$DIMCLRD
 70
     0
  9
$DIMCLRE
 70
     0
  9
$DIMCLRT
 70
     0
  9
$DIMTFAC
 40
1.0
  9
$DIMGAP
 40
1.0
  9
$LUNITS
 70
     2
  9
$LUPREC
 70
     4
  9
$AXISMODE
 70
     0
  9
$AXISUNIT
 10
0.0
 20
0.0
  9
$SKETCHINC
 40
0.1
  9
$FILLETRAD
 40
0.0
  9
$AUNITS
 70
     0
  9
$AUPREC
 70
     0
  9
$MENU
  1
acad
  9
$ELEVATION
 40
0.0
  9
$PELEVATION
 40
0.0
  9
$THICKNESS
 40
0.0
  9
$LIMCHECK
 70
     0
  9
$BLIPMODE
 70
     1
  9
$CHAMFERA
 40
0.0
  9
$CHAMFERB
 40
0.0
  9
$SKPOLY
 70
     0
  9
$TDCREATE
 40
2455958.512430556
  9
$TDUPDATE
 40
2455958.512430556
  9
$TDINDWG
 40
0.0000000000
  9
$TDUSRTIMER
 40
0.0000000000
  9
$USRTIMER
 70
     1
  9
$ANGBASE
 50
0.0
  9
$ANGDIR
 70
     0
  9
$PDMODE
 70
     0
  9
$PDSIZE
 40
0.0
  9
$PLINEWID
 40
0.0
  9
$COORDS
 70
     1
  9
$SPLFRAME
 70
     0
  9
$SPLINETYPE
 70
     6
  9
$SPLINESEGS
 70
     8
  9
$ATTDIA
 70
     0
  9
$ATTREQ
 70
     1
  9
$HANDLING
 70
     1
  9
$HANDSEED
  5
578
  9
$SURFTAB1
 70
     6
  9
$SURFTAB2
 70
     6
  9
$SURFTYPE
 70
     6
  9
$SURFU
 70
     6
  9
$SURFV
 70
     6
  9
$UCSNAME
  2

  9
$UCSORG
 10
0.0
 20
0.0
 30
0.0
  9
$UCSXDIR
 10
1.0
 20
0.0
 30
0.0
  9
$UCSYDIR
 10
0.0
 20
1.0
 30
0.0
  9
$PUCSNAME
  2

  9
$PUCSORG
 10
0.0
 20
0.0
 30
0.0
  9
$PUCSXDIR
 10
1.0
 20
0.0
 30
0.0
  9
$PUCSYDIR
 10
0.0
 20
1.0
 30
0.0
  9
$USERI1
 70
     0
  9
$USERI2
 70
     0
  9
$USERI3
 70
     0
  9
$USERI4
 70
     0
  9
$USERI5
 70
     0
  9
$USERR1
 40
0.0
  9
$USERR2
 40
0.0
  9
$USERR3
 40
0.0
  9
$USERR4
 40
0.0
  9
$USERR5
 40
0.0
  9
$WORLDVIEW
 70
     1
  9
$SHADEDGE
 70
     3
  9
$SHADEDIF
 70
    70
  9
$TILEMODE
 70
     1
  9
$MAXACTVP
 70
    16
  9
$PINSBASE
 10
0.0
 20
0.0
 30
0.0
  9
$PLIMCHECK
 70
     0
  9
$PEXTMIN
 10
1.000000E+20
 20
1.000000E+20
 30
1.000000E+20
  9
$PEXTMAX
 10
-1.000000E+20
 20
-1.000000E+20
 30
-1.000000E+20
  9
$PLIMMIN
 10
0.0
 20
0.0
  9
$PLIMMAX
 10
12.0
 20
9.0
  9
$UNITMODE
 70
     0
  9
$VISRETAIN
 70
     0
  9
$PLINEGEN
 70
     1
  9
$PSLTSCALE
 70
     0
  9
$TREEDEPTH
 70
  3020
  0
ENDSEC
  0
SECTION
  2
TABLES
  0
TABLE
  2
VPORT
 70
     1
  0
VPORT
  2
*ACTIVE
 70
     0
 10
0.0
 20
0.0
 11
1.0
 21
1.0
 12
5.433148
 22
26.902749
 13
0.0
 23
0.0
 14
1.0
 24
1.0
 15
0.0
 25
0.0
 16
0.0
 26
0.0
 36
1.0
 17
0.0
 27
0.0
 37
0.0
 40
377.543553
 41
1.732051
 42
50.0
 43
0.0
 44
0.0
 50
0.0
 51
0.0
 71
     0
 72
   100
 73
     1
 74
     1
 75
     0
 76
     0
 77
     0
 78
     0
  0
ENDTAB
  0
TABLE
  2
LTYPE
 70
     3
  0
LTYPE
  2
CONTINUOUS
 70
    64
  3
Solid line
 72
    65
 73
     0
 40
0.0
  0
LTYPE
  2
CENTER
 70
    64
  3
Center ____ _ ____ _ ____ _ ____ _ ____ _ ____
 72
    65
 73
     4
 40
50.8
 49
31.75
 49
-6.35
 49
6.35
 49
-6.35
  0
LTYPE
  2
PHANTOM
 70
    64
  3
Phantom ______  __  __  ______  __  __  ______
 72
    65
 73
     6
 40
63.5
 49
31.75
 49
-6.35
 49
6.35
 49
-6.35
 49
6.35
 49
-6.35
  0
ENDTAB
  0
TABLE
  2
LAYER
 70
     5
  0
LAYER
  2
0
 70
     0
 62
     7
  6
CONTINUOUS
  0
LAYER
  2
1
 70
     0
 62
     7
  6
CONTINUOUS
  0
LAYER
  2
30
 70
     0
 62
     7
  6
CONTINUOUS
  0
LAYER
  2
DEFPOINTS
 70
     0
 62
     7
  6
CONTINUOUS
  0
LAYER
  2
_CONSTR
 70
     0
 62
     5
  6
CONTINUOUS
  0
ENDTAB
  0
TABLE
  2
STYLE
 70
     1
  0
STYLE
  2
MX_NOTE_STANDARD
 70
     0
 40
0.0
 41
1.0
 50
0.0
 71
     0
 42
4.1656
  3
txt.shx
  4
extfont.shx
  0
ENDTAB
  0
TABLE
  2
VIEW
 70
     0
  0
ENDTAB
  0
TABLE
  2
UCS
 70
     0
  0
ENDTAB
  0
TABLE
  2
APPID
 70
     1
  0
APPID
  2
ACAD
 70
     0
  0
ENDTAB
  0
TABLE
  2
DIMSTYLE
 70
     1
  0
DIMSTYLE
  2
MXDIMSTYLE
 70
     0
  3

  4

  5

  6
_OPEN30
  7
_OPEN30
 40
1.0
 41
2.5
 42
0.5
 43
3.75
 44
1.0
 45
0.0
 46
0.0
 47
0.0
 48
0.0
 71
     0
 72
     0
 73
     0
 74
     0
 75
     0
 76
     0
 77
     1
 78
     8
140
2.5
141
2.5
142
0.0
143
0.03937
144
1.0
145
0.0
146
1.0
147
1.0
170
     0
171
     4
172
     1
173
     1
174
     0
175
     0
176
     0
177
     0
178
     0
  0
ENDTAB
  0
ENDSEC
  0
SECTION
  2
BLOCKS
  0
BLOCK
  8
0
  5
2A
  2
MS_1
 70
     0
 10
0.0
 20
0.0
 30
0.0
  3
MS_1
  0
LINE
  8
0
  6
CONTINUOUS
 62
   166
  5
2B
 10
-17.866605
 20
-4.0
 30
0.0
 11
-4.342369
 21
-4.0
 31
0.0
  0
LINE
  8
0
  6
CONTINUOUS
 62
   166
  5
2C
 10
-17.866605
 20
4.0
 30
0.0
 11
-4.342369
 21
4.0
 31
0.0
  0
ARC
  8
0
  6
CONTINUOUS
 62
   166
  5
2D
 10
-8.9
 20
0.0
 30
0.0
 40
10.0
 50
157.576887
 51
202.423112
  0
ARC
  8
0
  6
CONTINUOUS
 62
   166
  5
2E
 10
-17.866605
 20
-3.7
 30
0.0
 40
0.3
 50
202.423112
 51
270.0
  0
ARC
  8
0
  6
CONTINUOUS
 62
   166
  5
2F
 10
-17.866605
 20
3.7
 30
0.0
 40
0.3
 50
90.0
 51
157.576887
  0
CIRCLE
  8
0
  6
CONTINUOUS
 62
   166
  5
30
 10
0.0
 20
0.0
 30
0.0
 40
2.945889
  0
CIRCLE
  8
0
  6
CONTINUOUS
 62
   166
  5
31
 10
0.0
 20
0.0
 30
0.0
 40
4.1
  0
CIRCLE
  8
0
  6
CONTINUOUS
 62
   166
  5
32
 10
0.0
 20
0.0
 30
0.0
 40
4.140148
  0
CIRCLE
  8
0
  6
CONTINUOUS
 62
   166
  5
33
 10
0.0
 20
0.0
 30
0.0
 40
4.657834
  0
ARC
  8
0
  6
CONTINUOUS
 62
   166
  5
34
 10
0.0
 20
0.0
 30
0.0
 40
5.622399
 50
229.026544
 51
240.565568
  0
ARC
  8
0
  6
CONTINUOUS
 62
   166
  5
35
 10
-4.342369
 20
5.0
 30
0.0
 40
1.0
 50
270.0
 51
310.973457
  0
ARC
  8
0
  6
CONTINUOUS
 62
   166
  5
36
 10
-4.342369
 20
-5.0
 30
0.0
 40
1.0
 50
49.026544
 51
90.0
  0
ARC
  8
0
  6
CONTINUOUS
 62
   166
  5
37
 10
13.107177
 20
9.978296
 30
0.0
 40
10.850745
 50
217.281471
 51
261.671208
  0
CIRCLE
  8
0
  6
CONTINUOUS
 62
   166
  5
38
 10
10.738715
 20
-6.2
 30
0.0
 40
3.999772
  0
LINE
  8
0
  6
CONTINUOUS
 62
   166
  5
39
 10
11.318096
 20
-2.242413
 30
0.0
 11
11.535409
 21
-0.758008
 31
0.0
  0
ARC
  8
0
  6
CONTINUOUS
 62
   166
  5
3A
 10
0.0
 20
0.0
 30
0.0
 40
5.622399
 50
37.281471
 51
130.973457
  0
ARC
  8
0
  6
CONTINUOUS
 62
   166
  5
3B
 10
20.0
 20
0.0
 30
0.0
 40
1.226183
 50
326.067983
 51
124.636004
  0
ARC
  8
0
  6
CONTINUOUS
 62
   166
  5
3C
 10
13.107177
 20
9.978296
 30
0.0
 40
10.901365
 50
261.671208
 51
304.636004
  0
LINE
  8
0
  6
CONTINUOUS
 62
   166
  5
3D
 10
15.260069
 20
-9.241892
 30
0.0
 11
21.017364
 21
-0.684466
 31
0.0
  0
CIRCLE
  8
0
  6
CONTINUOUS
 62
   166
  5
3E
 10
10.738715
 20
-6.2
 30
0.0
 40
3.922969
  0
ARC
  8
0
  6
CONTINUOUS
 62
   166
  5
3F
 10
-8.9
 20
0.0
 30
0.0
 40
8.799817
 50
163.495132
 51
196.504868
  0
ARC
  8
0
  6
CONTINUOUS
 62
   166
  5
40
 10
40.789796
 20
-23.55
 30
0.0
 40
61.7
 50
157.56187
 51
160.052014
  0
LINE
  8
0
  6
CONTINUOUS
 62
   166
  5
41
 10
-17.337226
 20
-2.5
 30
0.0
 11
-5.065548
 21
-2.5
 31
0.0
  0
ARC
  8
0
  6
CONTINUOUS
 62
   166
  5
42
 10
40.789796
 20
23.55
 30
0.0
 40
61.7
 50
199.947986
 51
202.43813
  0
LINE
  8
0
  6
CONTINUOUS
 62
   166
  5
43
 10
-17.337226
 20
2.5
 30
0.0
 11
-5.065548
 21
2.5
 31
0.0
  0
ARC
  8
0
  6
CONTINUOUS
 62
   166
  5
44
 10
0.0
 20
0.0
 30
0.0
 40
5.648874
 50
153.732279
 51
206.267721
  0
LINE
  8
0
  6
CONTINUOUS
 62
   166
  5
45
 10
-16.641793
 20
1.0
 30
0.0
 11
-5.559656
 21
1.0
 31
0.0
  0
LINE
  8
0
  6
CONTINUOUS
 62
   166
  5
46
 10
-16.641793
 20
-1.0
 30
0.0
 11
-5.559656
 21
-1.0
 31
0.0
  0
ARC
  8
0
  6
CONTINUOUS
 62
   166
  5
47
 10
10.738715
 20
-6.2
 30
0.0
 40
5.44938
 50
240.565568
 51
326.067983
  0
LINE
  8
0
  6
CONTINUOUS
 62
   166
  5
48
 10
8.773118
 20
-9.683476
 30
0.0
 11
8.035865
 21
-10.990053
 31
0.0
  0
LINE
  8
0
  6
CONTINUOUS
 62
   166
  5
49
 10
-2.763
 20
-4.896652
 30
0.0
 11
8.035865
 21
-10.990053
 31
0.0
  0
ENDBLK
  8
0
  5
4A
  0
BLOCK
  8
0
  5
4B
  2
MS_2
 70
     0
 10
0.0
 20
0.0
 30
0.0
  3
MS_2
  0
CIRCLE
  8
0
  6
CONTINUOUS
 62
   120
  5
4C
 10
0.0
 20
0.0
 30
0.0
 40
1.9
  0
CIRCLE
  8
0
  6
CONTINUOUS
 62
   120
  5
4D
 10
0.0
 20
0.0
 30
0.0
 40
2.0
  0
CIRCLE
  8
0
  6
CONTINUOUS
 62
   120
  5
4E
 10
0.0
 20
0.0
 30
0.0
 40
5.25
  0
LINE
  8
0
  6
CONTINUOUS
 62
   120
  5
4F
 10
0.0
 20
-4.041452
 30
0.0
 11
3.5
 21
-2.020726
 31
0.0
  0
LINE
  8
0
  6
CONTINUOUS
 62
   120
  5
50
 10
-3.5
 20
2.020726
 30
0.0
 11
0.0
 21
4.041452
 31
0.0
  0
LINE
  8
0
  6
CONTINUOUS
 62
   120
  5
51
 10
-3.5
 20
-2.020726
 30
0.0
 11
0.0
 21
-4.041452
 31
0.0
  0
LINE
  8
0
  6
CONTINUOUS
 62
   120
  5
52
 10
0.0
 20
4.041452
 30
0.0
 11
3.5
 21
2.020726
 31
0.0
  0
CIRCLE
  8
0
  6
CONTINUOUS
 62
   120
  5
53
 10
0.0
 20
0.0
 30
0.0
 40
3.5
  0
LINE
  8
0
  6
CONTINUOUS
 62
   120
  5
54
 10
-3.5
 20
2.020726
 30
0.0
 11
-3.5
 21
-2.020726
 31
0.0
  0
LINE
  8
0
  6
CONTINUOUS
 62
   120
  5
55
 10
3.5
 20
2.020726
 30
0.0
 11
3.5
 21
-2.020726
 31
0.0
  0
ENDBLK
  8
0
  5
56
  0
BLOCK
  8
0
  5
57
  2
MS_3
 70
     0
 10
0.0
 20
0.0
 30
0.0
  3
MS_3
  0
ARC
  8
0
  6
CONTINUOUS
 62
     3
  5
58
 10
0.0
 20
0.0
 30
0.0
 40
52.15
 50
331.09874
 51
28.90126
  0
LINE
  8
0
  6
CONTINUOUS
 62
     3
  5
59
 10
37.286503
 20
-20.372672
 30
0.0
 11
47.040809
 21
-26.004323
 31
0.0
  0
LINE
  8
0
  6
CONTINUOUS
 62
     3
  5
5A
 10
36.286503
 20
-22.104723
 30
0.0
 11
46.040809
 21
-27.736374
 31
0.0
  0
LINE
  8
0
  6
CONTINUOUS
 62
     3
  5
5B
 10
-36.286503
 20
-22.104723
 30
0.0
 11
-46.040809
 21
-27.736374
 31
0.0
  0
LINE
  8
0
  6
CONTINUOUS
 62
     3
  5
5C
 10
-37.286503
 20
-20.372672
 30
0.0
 11
-47.040809
 21
-26.004323
 31
0.0
  0
ARC
  8
0
  6
CONTINUOUS
 62
     3
  5
5D
 10
0.0
 20
0.0
 30
0.0
 40
52.15
 50
151.09874
 51
208.90126
  0
ARC
  8
0
  6
CONTINUOUS
 62
     3
  5
5E
 10
0.0
 20
0.0
 30
0.0
 40
52.15
 50
91.09874
 51
148.90126
  0
LINE
  8
0
  6
CONTINUOUS
 62
     3
  5
5F
 10
-1.0
 20
42.477395
 30
0.0
 11
-1.0
 21
53.740697
 31
0.0
  0
LINE
  8
0
  6
CONTINUOUS
 62
     3
  5
60
 10
1.0
 20
42.477395
 30
0.0
 11
1.0
 21
53.740697
 31
0.0
  0
ARC
  8
0
  6
CONTINUOUS
 62
     3
  5
61
 10
0.0
 20
35.0
 30
0.0
 40
7.75
 50
97.413674
 51
262.586326
  0
ARC
  8
0
  6
CONTINUOUS
 62
     3
  5
62
 10
0.0
 20
0.0
 30
0.0
 40
52.15
 50
31.09874
 51
88.90126
  0
ARC
  8
0
  6
CONTINUOUS
 62
     3
  5
63
 10
0.0
 20
0.0
 30
0.0
 40
14.0
 50
154.096044
 51
205.903956
  0
ARC
  8
0
  6
CONTINUOUS
 62
     3
  5
64
 10
0.0
 20
0.0
 30
0.0
 40
14.0
 50
34.096044
 51
85.903956
  0
ARC
  8
0
  6
CONTINUOUS
 62
     3
  5
65
 10
0.0
 20
0.0
 30
0.0
 40
14.0
 50
334.096044
 51
25.903956
  0
ARC
  8
0
  6
CONTINUOUS
 62
     3
  5
66
 10
0.0
 20
0.0
 30
0.0
 40
14.0
 50
94.096044
 51
145.903956
  0
CIRCLE
  8
0
  6
CONTINUOUS
 62
     3
  5
67
 10
0.0
 20
0.0
 30
0.0
 40
12.0
  0
ARC
  8
0
  6
CONTINUOUS
 62
     3
  5
68
 10
0.0
 20
0.0
 30
0.0
 40
14.0
 50
214.096044
 51
325.903956
  0
LINE
  8
0
  6
CONTINUOUS
 62
     3
  5
69
 10
-11.593387
 20
-7.848145
 30
0.0
 11
-23.335275
 21
-14.627328
 31
0.0
  0
LINE
  8
0
  6
CONTINUOUS
 62
     3
  5
6A
 10
-12.593387
 20
-6.116095
 30
0.0
 11
-24.335275
 21
-12.895277
 31
0.0
  0
LINE
  8
0
  6
CONTINUOUS
 62
     3
  5
6B
 10
11.593387
 20
-7.848145
 30
0.0
 11
23.335275
 21
-14.627328
 31
0.0
  0
LINE
  8
0
  6
CONTINUOUS
 62
     3
  5
6C
 10
12.593387
 20
-6.116095
 30
0.0
 11
24.335275
 21
-12.895277
 31
0.0
  0
LINE
  8
0
  6
CONTINUOUS
 62
     3
  5
6D
 10
1.0
 20
13.96424
 30
0.0
 11
1.0
 21
27.522605
 31
0.0
  0
LINE
  8
0
  6
CONTINUOUS
 62
     3
  5
6E
 10
-1.0
 20
13.96424
 30
0.0
 11
-1.0
 21
27.522605
 31
0.0
  0
LINE
  8
0
  6
CONTINUOUS
 62
     3
  5
6F
 10
12.593387
 20
6.116095
 30
0.0
 11
47.040809
 21
26.004323
 31
0.0
  0
LINE
  8
0
  6
CONTINUOUS
 62
     3
  5
70
 10
11.593387
 20
7.848145
 30
0.0
 11
46.040809
 21
27.736374
 31
0.0
  0
LINE
  8
0
  6
CONTINUOUS
 62
     3
  5
71
 10
-11.593387
 20
7.848145
 30
0.0
 11
-46.040809
 21
27.736374
 31
0.0
  0
LINE
  8
0
  6
CONTINUOUS
 62
     3
  5
72
 10
-12.593387
 20
6.116095
 30
0.0
 11
-47.040809
 21
26.004323
 31
0.0
  0
LINE
  8
0
  6
CONTINUOUS
 62
     3
  5
73
 10
1.0
 20
-13.96424
 30
0.0
 11
1.0
 21
-33.976971
 31
0.0
  0
LINE
  8
0
  6
CONTINUOUS
 62
     3
  5
74
 10
-1.0
 20
-13.96424
 30
0.0
 11
-1.0
 21
-33.736303
 31
0.0
  0
CIRCLE
  8
0
  6
CONTINUOUS
 62
     3
  5
75
 10
-13.354737
 20
28.639326
 30
0.0
 40
4.0
  0
LINE
  8
0
  6
CONTINUOUS
 62
     3
  5
76
 10
-5.273058
 20
-48.223929
 30
0.0
 11
-3.181049
 21
-48.406956
 31
0.0
  0
LINE
  8
0
  6
CONTINUOUS
 62
     3
  5
77
 10
-4.140033
 20
-35.273398
 30
0.0
 11
-2.048024
 21
-35.456425
 31
0.0
  0
LINE
  8
0
  6
CONTINUOUS
 62
     3
  5
78
 10
-10.117201
 20
-34.750464
 30
0.0
 11
-8.025193
 21
-34.933491
 31
0.0
  0
LINE
  8
0
  6
CONTINUOUS
 62
     3
  5
79
 10
-11.250226
 20
-47.700995
 30
0.0
 11
-9.158217
 21
-47.884022
 31
0.0
  0
LINE
  8
0
  6
CONTINUOUS
 62
     3
  5
7A
 10
2.796119
 20
-48.929891
 30
0.0
 11
0.70411
 21
-48.746864
 31
0.0
  0
LINE
  8
0
  6
CONTINUOUS
 62
     3
  5
7B
 10
3.929144
 20
-35.97936
 30
0.0
 11
1.837135
 21
-35.796333
 31
0.0
  0
LINE
  8
0
  6
CONTINUOUS
 62
     3
  5
7C
 10
18.829895
 20
-22.523743
 30
0.0
 11
17.401076
 21
-20.595407
 31
0.0
  0
LINE
  8
0
  6
CONTINUOUS
 62
     3
  5
7D
 10
5.150565
 20
-28.902519
 30
0.0
 11
4.591802
 21
-26.56847
 31
0.0
  0
CIRCLE
  8
0
  6
CONTINUOUS
 62
     3
  5
7E
 10
-18.595204
 20
39.877543
 30
0.0
 40
2.25
  0
LINE
  8
0
  6
CONTINUOUS
 62
     3
  5
7F
 10
0.0
 20
30.092523
 30
0.0
 11
-4.25
 21
32.546261
 31
0.0
  0
LINE
  8
0
  6
CONTINUOUS
 62
     3
  5
80
 10
4.25
 20
37.453739
 30
0.0
 11
0.0
 21
39.907477
 31
0.0
  0
LINE
  8
0
  6
CONTINUOUS
 62
     3
  5
81
 10
4.25
 20
32.546261
 30
0.0
 11
0.0
 21
30.092523
 31
0.0
  0
LINE
  8
0
  6
CONTINUOUS
 62
     3
  5
82
 10
0.0
 20
39.907477
 30
0.0
 11
-4.25
 21
37.453739
 31
0.0
  0
LINE
  8
0
  6
CONTINUOUS
 62
     3
  5
83
 10
4.25
 20
37.453739
 30
0.0
 11
4.25
 21
32.546261
 31
0.0
  0
LINE
  8
0
  6
CONTINUOUS
 62
     3
  5
84
 10
-4.25
 20
37.453739
 30
0.0
 11
-4.25
 21
32.546261
 31
0.0
  0
ARC
  8
0
  6
CONTINUOUS
 62
     3
  5
85
 10
-3.634517
 20
7.794247
 30
0.0
 40
37.733676
 50
283.463041
 51
306.536959
  0
CIRCLE
  8
0
  6
CONTINUOUS
 62
     3
  5
86
 10
-25.237363
 20
-36.04269
 30
0.0
 40
2.25
  0
CIRCLE
  8
0
  6
CONTINUOUS
 62
     3
  5
87
 10
43.832567
 20
-3.834853
 30
0.0
 40
2.25
  0
ARC
  8
0
  6
CONTINUOUS
 62
     3
  5
88
 10
0.0
 20
0.0
 30
0.0
 40
53.75
 50
91.066029
 51
148.933971
  0
LINE
  8
0
  6
CONTINUOUS
 62
     3
  5
89
 10
4.038088
 20
-34.734116
 30
0.0
 11
3.929144
 21
-35.97936
 31
0.0
  0
LINE
  8
0
  6
CONTINUOUS
 62
     3
  5
8A
 10
1.94608
 20
-34.551089
 30
0.0
 11
1.837135
 21
-35.796333
 31
0.0
  0
ARC
  8
0
  6
CONTINUOUS
 62
     3
  5
8B
 10
0.0
 20
0.0
 30
0.0
 40
52.15
 50
211.09874
 51
268.90126
  0
LINE
  8
0
  6
CONTINUOUS
 62
     3
  5
8C
 10
4.299646
 20
-39.776099
 30
0.0
 11
4.735425
 21
-34.795125
 31
0.0
  0
LINE
  8
0
  6
CONTINUOUS
 62
     3
  5
8D
 10
0.815143
 20
-39.446149
 30
0.0
 11
1.250922
 21
-34.465175
 31
0.0
  0
LINE
  8
0
  6
CONTINUOUS
 62
     3
  5
8E
 10
-5.162025
 20
-38.923214
 30
0.0
 11
-4.726246
 21
-33.942241
 31
0.0
  0
LINE
  8
0
  6
CONTINUOUS
 62
     3
  5
8F
 10
-1.93908
 20
-34.211182
 30
0.0
 11
-2.048024
 21
-35.456425
 31
0.0
  0
LINE
  8
0
  6
CONTINUOUS
 62
     3
  5
90
 10
-1.675343
 20
-39.22826
 30
0.0
 11
-1.239565
 21
-34.247286
 31
0.0
  0
LINE
  8
0
  6
CONTINUOUS
 62
     3
  5
91
 10
-4.031089
 20
-34.028155
 30
0.0
 11
-4.140033
 21
-35.273398
 31
0.0
  0
LINE
  8
0
  6
CONTINUOUS
 62
     3
  5
92
 10
-11.139193
 20
-38.40028
 30
0.0
 11
-10.703414
 21
-33.419307
 31
0.0
  0
LINE
  8
0
  6
CONTINUOUS
 62
     3
  5
93
 10
-7.916248
 20
-33.688247
 30
0.0
 11
-8.025193
 21
-34.933491
 31
0.0
  0
LINE
  8
0
  6
CONTINUOUS
 62
     3
  5
94
 10
-7.652511
 20
-38.705325
 30
0.0
 11
-7.216733
 21
-33.724352
 31
0.0
  0
LINE
  8
0
  6
CONTINUOUS
 62
     3
  5
95
 10
-10.008257
 20
-33.50522
 30
0.0
 11
-10.117201
 21
-34.750464
 31
0.0
  0
LINE
  8
0
  6
CONTINUOUS
 62
     3
  5
96
 10
-8.134047
 20
-44.209301
 30
0.0
 11
-8.569826
 21
-49.190274
 31
0.0
  0
LINE
  8
0
  6
CONTINUOUS
 62
     3
  5
97
 10
-11.359171
 20
-48.946238
 30
0.0
 11
-11.250226
 21
-47.700995
 31
0.0
  0
LINE
  8
0
  6
CONTINUOUS
 62
     3
  5
98
 10
-11.620728
 20
-43.904256
 30
0.0
 11
-12.056507
 21
-48.885229
 31
0.0
  0
LINE
  8
0
  6
CONTINUOUS
 62
     3
  5
99
 10
-9.267162
 20
-49.129265
 30
0.0
 11
-9.158217
 21
-47.884022
 31
0.0
  0
LINE
  8
0
  6
CONTINUOUS
 62
     3
  5
9A
 10
-2.156879
 20
-44.732235
 30
0.0
 11
-2.592657
 21
-49.713209
 31
0.0
  0
LINE
  8
0
  6
CONTINUOUS
 62
     3
  5
9B
 10
-5.382003
 20
-49.469173
 30
0.0
 11
-5.273058
 21
-48.223929
 31
0.0
  0
LINE
  8
0
  6
CONTINUOUS
 62
     3
  5
9C
 10
-5.64356
 20
-44.42719
 30
0.0
 11
-6.081518
 21
-49.433069
 31
0.0
  0
LINE
  8
0
  6
CONTINUOUS
 62
     3
  5
9D
 10
-3.289994
 20
-49.6522
 30
0.0
 11
-3.181049
 21
-48.406956
 31
0.0
  0
LINE
  8
0
  6
CONTINUOUS
 62
     3
  5
9E
 10
3.820289
 20
-45.25517
 30
0.0
 11
3.384511
 21
-50.236143
 31
0.0
  0
LINE
  8
0
  6
CONTINUOUS
 62
     3
  5
9F
 10
0.595166
 20
-49.992107
 30
0.0
 11
0.70411
 21
-48.746864
 31
0.0
  0
LINE
  8
0
  6
CONTINUOUS
 62
     3
  5
A0
 10
0.333608
 20
-44.950125
 30
0.0
 11
-0.102171
 21
-49.931098
 31
0.0
  0
LINE
  8
0
  6
CONTINUOUS
 62
     3
  5
A1
 10
2.687174
 20
-50.175134
 30
0.0
 11
2.796119
 21
-48.929891
 31
0.0
  0
LINE
  8
0
  6
CONTINUOUS
 62
     3
  5
A2
 10
1.0
 20
-40.239398
 30
0.0
 11
1.0
 21
-44.121504
 31
0.0
  0
LINE
  8
0
  6
CONTINUOUS
 62
     3
  5
A3
 10
-1.0
 20
-39.434198
 30
0.0
 11
-1.0
 21
-45.299609
 31
0.0
  0
LINE
  8
0
  6
CONTINUOUS
 62
     3
  5
A4
 10
-1.0
 20
-49.808526
 30
0.0
 11
-1.0
 21
-53.740697
 31
0.0
  0
LINE
  8
0
  6
CONTINUOUS
 62
     3
  5
A5
 10
1.0
 20
-51.114574
 30
0.0
 11
1.0
 21
-53.740697
 31
0.0
  0
ARC
  8
0
  6
CONTINUOUS
 62
     3
  5
A6
 10
0.0
 20
0.0
 30
0.0
 40
52.15
 50
271.09874
 51
328.90126
  0
LINE
  8
0
  6
CONTINUOUS
 62
     3
  5
A7
 10
-26.060889
 20
-15.046261
 30
0.0
 11
-26.060889
 21
-19.953739
 31
0.0
  0
LINE
  8
0
  6
CONTINUOUS
 62
     3
  5
A8
 10
-34.560889
 20
-15.046261
 30
0.0
 11
-34.560889
 21
-19.953739
 31
0.0
  0
LINE
  8
0
  6
CONTINUOUS
 62
     3
  5
A9
 10
-34.560889
 20
-15.046261
 30
0.0
 11
-30.310889
 21
-12.592523
 31
0.0
  0
LINE
  8
0
  6
CONTINUOUS
 62
     3
  5
AA
 10
-30.310889
 20
-22.407477
 30
0.0
 11
-26.060889
 21
-19.953739
 31
0.0
  0
LINE
  8
0
  6
CONTINUOUS
 62
     3
  5
AB
 10
-34.560889
 20
-19.953739
 30
0.0
 11
-30.310889
 21
-22.407477
 31
0.0
  0
LINE
  8
0
  6
CONTINUOUS
 62
     3
  5
AC
 10
-30.310889
 20
-12.592523
 30
0.0
 11
-26.060889
 21
-15.046261
 31
0.0
  0
LINE
  8
0
  6
CONTINUOUS
 62
     3
  5
AD
 10
26.060889
 20
-15.046261
 30
0.0
 11
30.310889
 21
-12.592523
 31
0.0
  0
LINE
  8
0
  6
CONTINUOUS
 62
     3
  5
AE
 10
30.310889
 20
-22.407477
 30
0.0
 11
34.560889
 21
-19.953739
 31
0.0
  0
LINE
  8
0
  6
CONTINUOUS
 62
     3
  5
AF
 10
30.310889
 20
-22.407477
 30
0.0
 11
26.060889
 21
-19.953739
 31
0.0
  0
LINE
  8
0
  6
CONTINUOUS
 62
     3
  5
B0
 10
34.560889
 20
-15.046261
 30
0.0
 11
30.310889
 21
-12.592523
 31
0.0
  0
LINE
  8
0
  6
CONTINUOUS
 62
     3
  5
B1
 10
34.560889
 20
-19.953739
 30
0.0
 11
34.560889
 21
-15.046261
 31
0.0
  0
LINE
  8
0
  6
CONTINUOUS
 62
     3
  5
B2
 10
26.060889
 20
-19.953739
 30
0.0
 11
26.060889
 21
-15.046261
 31
0.0
  0
LINE
  8
0
  6
CONTINUOUS
 62
     3
  5
B3
 10
3.820289
 20
-45.25517
 30
0.0
 11
0.333608
 21
-44.950125
 31
0.0
  0
LINE
  8
0
  6
CONTINUOUS
 62
     3
  5
B4
 10
4.299646
 20
-39.776099
 30
0.0
 11
0.812965
 21
-39.471054
 31
0.0
  0
LINE
  8
0
  6
CONTINUOUS
 62
     3
  5
B5
 10
3.384511
 20
-50.236143
 30
0.0
 11
-0.102171
 21
-49.931098
 31
0.0
  0
LINE
  8
0
  6
CONTINUOUS
 62
     3
  5
B6
 10
4.735425
 20
-34.795125
 30
0.0
 11
1.248743
 21
-34.49008
 31
0.0
  0
LINE
  8
0
  6
CONTINUOUS
 62
     3
  5
B7
 10
-1.677522
 20
-39.253164
 30
0.0
 11
-5.164204
 21
-38.948119
 31
0.0
  0
LINE
  8
0
  6
CONTINUOUS
 62
     3
  5
B8
 10
-7.65469
 20
-38.73023
 30
0.0
 11
-11.141372
 21
-38.425185
 31
0.0
  0
LINE
  8
0
  6
CONTINUOUS
 62
     3
  5
B9
 10
-7.218912
 20
-33.749257
 30
0.0
 11
-10.705593
 21
-33.444211
 31
0.0
  0
LINE
  8
0
  6
CONTINUOUS
 62
     3
  5
BA
 10
-1.241743
 20
-34.272191
 30
0.0
 11
-4.728425
 21
-33.967146
 31
0.0
  0
LINE
  8
0
  6
CONTINUOUS
 62
     3
  5
BB
 10
-8.134047
 20
-44.209301
 30
0.0
 11
-11.620728
 21
-43.904256
 31
0.0
  0
LINE
  8
0
  6
CONTINUOUS
 62
     3
  5
BC
 10
-2.156879
 20
-44.732235
 30
0.0
 11
-5.64356
 21
-44.42719
 31
0.0
  0
LINE
  8
0
  6
CONTINUOUS
 62
     3
  5
BD
 10
-2.592657
 20
-49.713209
 30
0.0
 11
-6.079339
 21
-49.408164
 31
0.0
  0
LINE
  8
0
  6
CONTINUOUS
 62
     3
  5
BE
 10
-8.569826
 20
-49.190274
 30
0.0
 11
-12.056507
 21
-48.885229
 31
0.0
  0
ARC
  8
0
  6
CONTINUOUS
 62
     3
  5
BF
 10
2.776374
 20
-37.108185
 30
0.0
 40
4.0
 50
243.634652
 51
116.365348
  0
ARC
  8
0
  6
CONTINUOUS
 62
     3
  5
C0
 10
-3.200795
 20
-36.58525
 30
0.0
 40
4.0
 50
216.409622
 51
303.380643
  0
ARC
  8
0
  6
CONTINUOUS
 62
     3
  5
C1
 10
-9.177963
 20
-36.062316
 30
0.0
 40
4.0
 50
36.409622
 51
313.590378
  0
ARC
  8
0
  6
CONTINUOUS
 62
     3
  5
C2
 10
-10.097456
 20
-46.57217
 30
0.0
 40
4.0
 50
36.409622
 51
313.590378
  0
ARC
  8
0
  6
CONTINUOUS
 62
     3
  5
C3
 10
-4.120288
 20
-47.095104
 30
0.0
 40
4.0
 50
216.409622
 51
313.590378
  0
ARC
  8
0
  6
CONTINUOUS
 62
     3
  5
C4
 10
1.85688
 20
-47.618039
 30
0.0
 40
4.0
 50
216.409622
 51
224.420679
  0
ARC
  8
0
  6
CONTINUOUS
 62
     3
  5
C5
 10
-4.120288
 20
-47.095104
 30
0.0
 40
4.0
 50
38.732838
 51
133.590378
  0
ARC
  8
0
  6
CONTINUOUS
 62
     3
  5
C6
 10
-3.200795
 20
-36.58525
 30
0.0
 40
4.0
 50
56.619357
 51
133.590378
  0
ARC
  8
0
  6
CONTINUOUS
 62
     3
  5
C7
 10
1.85688
 20
-47.618039
 30
0.0
 40
4.0
 50
257.630223
 51
102.369777
  0
ARC
  8
0
  6
CONTINUOUS
 62
     3
  5
C8
 10
2.776374
 20
-37.108185
 30
0.0
 40
3.6
 50
240.433257
 51
119.566743
  0
ARC
  8
0
  6
CONTINUOUS
 62
     3
  5
C9
 10
-3.200795
 20
-36.58525
 30
0.0
 40
3.6
 50
52.314133
 51
141.44269
  0
ARC
  8
0
  6
CONTINUOUS
 62
     3
  5
CA
 10
-9.177963
 20
-36.062316
 30
0.0
 40
3.6
 50
28.55731
 51
321.44269
  0
ARC
  8
0
  6
CONTINUOUS
 62
     3
  5
CB
 10
-10.097456
 20
-46.57217
 30
0.0
 40
3.6
 50
28.55731
 51
321.44269
  0
ARC
  8
0
  6
CONTINUOUS
 62
     3
  5
CC
 10
-4.120288
 20
-47.095104
 30
0.0
 40
3.6
 50
208.55731
 51
321.44269
  0
ARC
  8
0
  6
CONTINUOUS
 62
     3
  5
CD
 10
1.85688
 20
-47.618039
 30
0.0
 40
3.6
 50
208.55731
 51
217.478859
  0
ARC
  8
0
  6
CONTINUOUS
 62
     3
  5
CE
 10
-3.200795
 20
-36.58525
 30
0.0
 40
3.6
 50
208.55731
 51
307.685867
  0
ARC
  8
0
  6
CONTINUOUS
 62
     3
  5
CF
 10
-4.120288
 20
-47.095104
 30
0.0
 40
3.6
 50
29.917254
 51
141.44269
  0
ARC
  8
0
  6
CONTINUOUS
 62
     3
  5
D0
 10
-3.634517
 20
7.794247
 30
0.0
 40
35.333676
 50
283.463041
 51
306.536959
  0
ARC
  8
0
  6
CONTINUOUS
 62
     3
  5
D1
 10
1.85688
 20
-47.618039
 30
0.0
 40
3.6
 50
256.230153
 51
103.769847
  0
CIRCLE
  8
0
  6
CONTINUOUS
 62
     3
  5
D2
 10
0.0
 20
35.0
 30
0.0
 40
7.25
  0
CIRCLE
  8
0
  6
CONTINUOUS
 62
     3
  5
D3
 10
0.0
 20
35.0
 30
0.0
 40
2.55
  0
ARC
  8
0
  6
CONTINUOUS
 62
     3
  5
D4
 10
-30.310889
 20
-17.5
 30
0.0
 40
7.75
 50
37.413674
 51
202.586326
  0
CIRCLE
  8
0
  6
CONTINUOUS
 62
     3
  5
D5
 10
-30.310889
 20
-17.5
 30
0.0
 40
7.25
  0
CIRCLE
  8
0
  6
CONTINUOUS
 62
     3
  5
D6
 10
-30.310889
 20
-17.5
 30
0.0
 40
2.55
  0
ARC
  8
0
  6
CONTINUOUS
 62
     3
  5
D7
 10
30.310889
 20
-17.5
 30
0.0
 40
7.75
 50
157.413674
 51
322.586326
  0
CIRCLE
  8
0
  6
CONTINUOUS
 62
     3
  5
D8
 10
30.310889
 20
-17.5
 30
0.0
 40
7.25
  0
CIRCLE
  8
0
  6
CONTINUOUS
 62
     3
  5
D9
 10
30.310889
 20
-17.5
 30
0.0
 40
2.55
  0
ARC
  8
0
  6
CONTINUOUS
 62
     3
  5
DA
 10
-30.310889
 20
-17.5
 30
0.0
 40
7.543967
 50
22.382667
 51
37.617333
  0
ARC
  8
0
  6
CONTINUOUS
 62
     3
  5
DB
 10
0.0
 20
35.0
 30
0.0
 40
7.75
 50
277.413674
 51
82.586326
  0
ARC
  8
0
  6
CONTINUOUS
 62
     3
  5
DC
 10
-30.310889
 20
-17.5
 30
0.0
 40
7.75
 50
217.413674
 51
22.586326
  0
ARC
  8
0
  6
CONTINUOUS
 62
     3
  5
DD
 10
-30.310889
 20
-17.5
 30
0.0
 40
7.543967
 50
202.382667
 51
217.617333
  0
ARC
  8
0
  6
CONTINUOUS
 62
     3
  5
DE
 10
30.310889
 20
-17.5
 30
0.0
 40
7.543967
 50
142.382667
 51
157.617333
  0
ARC
  8
0
  6
CONTINUOUS
 62
     3
  5
DF
 10
30.310889
 20
-17.5
 30
0.0
 40
7.543967
 50
322.382667
 51
337.617333
  0
ARC
  8
0
  6
CONTINUOUS
 62
     3
  5
E0
 10
0.0
 20
35.0
 30
0.0
 40
7.543967
 50
262.382667
 51
277.617333
  0
ARC
  8
0
  6
CONTINUOUS
 62
     3
  5
E1
 10
0.0
 20
35.0
 30
0.0
 40
7.543967
 50
82.382667
 51
97.617333
  0
ARC
  8
0
  6
CONTINUOUS
 62
     3
  5
E2
 10
30.310889
 20
-17.5
 30
0.0
 40
7.75
 50
337.413674
 51
142.586326
  0
ARC
  8
0
  6
CONTINUOUS
 62
     3
  5
E3
 10
0.0
 20
0.0
 30
0.0
 40
53.75
 50
211.066029
 51
268.933971
  0
ARC
  8
0
  6
CONTINUOUS
 62
     3
  5
E4
 10
0.0
 20
0.0
 30
0.0
 40
53.75
 50
271.066029
 51
328.933971
  0
ARC
  8
0
  6
CONTINUOUS
 62
     3
  5
E5
 10
0.0
 20
0.0
 30
0.0
 40
53.75
 50
331.066029
 51
28.933971
  0
ARC
  8
0
  6
CONTINUOUS
 62
     3
  5
E6
 10
0.0
 20
0.0
 30
0.0
 40
53.75
 50
31.066029
 51
88.933971
  0
ARC
  8
0
  6
CONTINUOUS
 62
     3
  5
E7
 10
0.0
 20
0.0
 30
0.0
 40
53.75
 50
151.066029
 51
208.933971
  0
LINE
  8
0
  6
CONTINUOUS
 62
    10
  5
E8
 10
11.450608
 20
44.250044
 30
0.0
 11
10.303455
 21
45.888348
 31
0.0
  0
LINE
  8
0
  6
CONTINUOUS
 62
    10
  5
E9
 10
15.150708
 20
45.241483
 30
0.0
 11
15.325019
 21
47.233872
 31
0.0
  0
CIRCLE
  8
0
  6
CONTINUOUS
 62
    10
  5
EA
 10
18.563085
 20
20.455906
 30
0.0
 40
0.85
  0
CIRCLE
  8
0
  6
CONTINUOUS
 62
    10
  5
EB
 10
12.873315
 20
24.439926
 30
0.0
 40
0.85
  0
CIRCLE
  8
0
  6
CONTINUOUS
 62
    10
  5
EC
 10
10.632409
 20
27.110533
 30
0.0
 40
0.85
  0
CIRCLE
  8
0
  6
CONTINUOUS
 62
    10
  5
ED
 10
15.543921
 20
22.19902
 30
0.0
 40
0.85
  0
ARC
  8
0
  6
CONTINUOUS
 62
    10
  5
EE
 10
8.605353
 20
30.767439
 30
0.0
 40
1.519201
 50
23.0
 51
203.0
  0
CIRCLE
  8
0
  6
CONTINUOUS
 62
    10
  5
EF
 10
8.889294
 20
30.129696
 30
0.0
 40
0.85
  0
ARC
  8
0
  6
CONTINUOUS
 62
    10
  5
F0
 10
14.662636
 20
39.662792
 30
0.0
 40
5.6
 50
85.0
 51
125.0
  0
ARC
  8
0
  6
CONTINUOUS
 62
    10
  5
F1
 10
14.662636
 20
39.662792
 30
0.0
 40
7.6
 50
85.0
 51
125.0
  0
CIRCLE
  8
0
  6
CONTINUOUS
 62
    10
  5
F2
 10
27.01545
 20
38.582061
 30
0.0
 40
1.25
  0
CIRCLE
  8
0
  6
CONTINUOUS
 62
    10
  5
F3
 10
27.01545
 20
38.582061
 30
0.0
 40
1.75
  0
CIRCLE
  8
0
  6
CONTINUOUS
 62
    10
  5
F4
 10
27.01545
 20
38.582061
 30
0.0
 40
2.9
  0
CIRCLE
  8
0
  6
CONTINUOUS
 62
    10
  5
F5
 10
21.839069
 20
19.263545
 30
0.0
 40
0.85
  0
CIRCLE
  8
0
  6
CONTINUOUS
 62
    10
  5
F6
 10
19.903102
 20
28.424576
 30
0.0
 40
4.5
  0
CIRCLE
  8
0
  6
CONTINUOUS
 62
    10
  5
F7
 10
25.272335
 20
18.658167
 30
0.0
 40
0.85
  0
ARC
  8
0
  6
CONTINUOUS
 62
    10
  5
F8
 10
27.01545
 20
38.582061
 30
0.0
 40
21.519201
 50
203.0
 51
267.0
  0
ARC
  8
0
  6
CONTINUOUS
 62
    10
  5
F9
 10
25.968731
 20
18.609471
 30
0.0
 40
1.519201
 50
267.0
 51
87.0
  0
ARC
  8
0
  6
CONTINUOUS
 62
    10
  5
FA
 10
27.01545
 20
38.582061
 30
0.0
 40
18.480799
 50
203.0
 51
267.0
  0
ARC
  8
0
  6
CONTINUOUS
 62
    10
  5
FB
 10
35.81341
 20
24.655096
 30
0.0
 40
8.7
 50
159.465771
 51
189.465771
  0
ARC
  8
0
  6
CONTINUOUS
 62
    10
  5
FC
 10
35.81341
 20
24.655096
 30
0.0
 40
10.7
 50
159.565629
 51
189.565629
  0
LINE
  8
0
  6
CONTINUOUS
 62
    10
  5
FD
 10
25.262184
 20
22.876999
 30
0.0
 11
27.231869
 21
23.224308
 31
0.0
  0
LINE
  8
0
  6
CONTINUOUS
 62
    10
  5
FE
 10
25.786732
 20
28.390832
 30
0.0
 11
27.666183
 21
27.706768
 31
0.0
  0
CIRCLE
  8
0
  6
CONTINUOUS
 62
    10
  5
FF
 10
27.01545
 20
38.582061
 30
0.0
 40
2.844144
  0
CIRCLE
  8
0
  6
CONTINUOUS
 62
    10
  5
100
 10
-17.494081
 20
-24.984137
 30
0.0
 40
4.0
  0
CIRCLE
  8
0
  6
CONTINUOUS
 62
     3
  5
101
 10
0.0
 20
0.0
 30
0.0
 40
60.0
  0
ENDBLK
  8
0
  5
102
  0
BLOCK
  8
0
  6
BYBLOCK
 62
     0
  5
25
  2
_OPEN30
 70
     2
 10
0.0
 20
0.0
 30
0.0
  3
_OPEN30
  0
LINE
  8
0
  6
BYBLOCK
 62
     0
  5
26
 10
-1.0
 20
0.267949
 30
0.0
 11
0.0
 21
0.0
 31
0.0
  0
LINE
  8
0
  6
BYBLOCK
 62
     0
  5
27
 10
0.0
 20
0.0
 30
0.0
 11
-1.0
 21
-0.267949
 31
0.0
  0
LINE
  8
0
  6
BYBLOCK
 62
     0
  5
28
 10
0.0
 20
0.0
 30
0.0
 11
-1.0
 21
0.0
 31
0.0
  0
ENDBLK
  8
0
  6
BYBLOCK
 62
     0
  5
29
  0
ENDSEC
  0
SECTION
  2
ENTITIES
  0
INSERT
  8
0
  6
BYBLOCK
  5
103
  2
MS_2
 10
-100.0
 20
-65.0
 30
0.0
  0
INSERT
  8
0
  6
BYBLOCK
  5
104
  2
MS_2
 10
-130.310889
 20
-117.5
 30
0.0
 50
120.0
  0
INSERT
  8
0
  6
BYBLOCK
  5
105
  2
MS_2
 10
-69.689111
 20
-117.5
 30
0.0
 50
240.0
  0
INSERT
  8
0
  6
BYBLOCK
  5
106
  2
MS_2
 10
100.0
 20
-65.0
 30
0.0
  0
INSERT
  8
0
  6
BYBLOCK
  5
107
  2
MS_2
 10
69.689111
 20
-117.5
 30
0.0
 50
120.0
  0
INSERT
  8
0
  6
BYBLOCK
  5
108
  2
MS_2
 10
130.310889
 20
-117.5
 30
0.0
 50
240.0
  0
LINE
  8
0
  6
CONTINUOUS
 62
     3
  5
109
 10
-60.40202
 20
53.0
 30
0.0
 11
-60.40202
 21
3.0
 31
0.0
  0
LINE
  8
0
  6
CONTINUOUS
 62
     3
  5
10A
 10
-57.371648
 20
3.0
 30
0.0
 11
-57.371648
 21
53.0
 31
0.0
  0
ARC
  8
0
  6
CONTINUOUS
 62
     3
  5
10B
 10
-157.0
 20
3.0
 30
0.0
 40
3.0
 50
180.0
 51
270.0
  0
LINE
  8
0
  6
CONTINUOUS
 62
     3
  5
10C
 10
-160.0
 20
3.0
 30
0.0
 11
-40.0
 21
3.0
 31
0.0
  0
LINE
  8
0
  6
CONTINUOUS
 62
     3
  5
10D
 10
-85.506133
 20
3.0
 30
0.0
 11
-85.506133
 21
53.0
 31
0.0
  0
LINE
  8
0
  6
CONTINUOUS
 62
     3
  5
10E
 10
-80.846872
 20
3.0
 30
0.0
 11
-80.846872
 21
53.0
 31
0.0
  0
LINE
  8
0
  6
CONTINUOUS
 62
     3
  5
10F
 10
-54.127486
 20
53.0
 30
0.0
 11
-54.127486
 21
3.0
 31
0.0
  0
LINE
  8
0
  6
CONTINUOUS
 62
     3
  5
110
 10
-51.502577
 20
3.0
 30
0.0
 11
-51.502577
 21
53.0
 31
0.0
  0
LINE
  8
0
  6
CONTINUOUS
 62
     3
  5
111
 10
-49.246764
 20
53.0
 30
0.0
 11
-49.246764
 21
3.0
 31
0.0
  0
LINE
  8
0
  6
CONTINUOUS
 62
     3
  5
112
 10
-47.377213
 20
3.0
 30
0.0
 11
-47.377213
 21
53.0
 31
0.0
  0
LINE
  8
0
  6
CONTINUOUS
 62
     3
  5
113
 10
-45.908154
 20
53.0
 30
0.0
 11
-45.908154
 21
3.0
 31
0.0
  0
LINE
  8
0
  6
CONTINUOUS
 62
     3
  5
114
 10
-44.850766
 20
3.0
 30
0.0
 11
-44.850766
 21
53.0
 31
0.0
  0
LINE
  8
0
  6
CONTINUOUS
 62
     3
  5
115
 10
-44.213097
 20
53.0
 30
0.0
 11
-44.213097
 21
3.0
 31
0.0
  0
LINE
  8
0
  6
CONTINUOUS
 62
     3
  5
116
 10
-44.0
 20
3.0
 30
0.0
 11
-44.0
 21
53.0
 31
0.0
  0
LINE
  8
0
  6
CONTINUOUS
 62
     3
  5
117
 10
-156.0
 20
3.0
 30
0.0
 11
-156.0
 21
53.0
 31
0.0
  0
LINE
  8
0
  6
CONTINUOUS
 62
     3
  5
118
 10
-155.786903
 20
53.0
 30
0.0
 11
-155.786903
 21
3.0
 31
0.0
  0
LINE
  8
0
  6
CONTINUOUS
 62
     3
  5
119
 10
-76.333377
 20
53.0
 30
0.0
 11
-76.333377
 21
3.0
 31
0.0
  0
LINE
  8
0
  6
CONTINUOUS
 62
     3
  5
11A
 10
-155.149234
 20
3.0
 30
0.0
 11
-155.149234
 21
53.0
 31
0.0
  0
LINE
  8
0
  6
CONTINUOUS
 62
     3
  5
11B
 10
-154.091846
 20
53.0
 30
0.0
 11
-154.091846
 21
3.0
 31
0.0
  0
LINE
  8
0
  6
CONTINUOUS
 62
     3
  5
11C
 10
-152.622787
 20
3.0
 30
0.0
 11
-152.622787
 21
53.0
 31
0.0
  0
LINE
  8
0
  6
CONTINUOUS
 62
     3
  5
11D
 10
-150.753236
 20
53.0
 30
0.0
 11
-150.753236
 21
3.0
 31
0.0
  0
LINE
  8
0
  6
CONTINUOUS
 62
     3
  5
11E
 10
-72.0
 20
3.0
 30
0.0
 11
-72.0
 21
53.0
 31
0.0
  0
LINE
  8
0
  6
CONTINUOUS
 62
     3
  5
11F
 10
-148.497423
 20
3.0
 30
0.0
 11
-148.497423
 21
53.0
 31
0.0
  0
LINE
  8
0
  6
CONTINUOUS
 62
     3
  5
120
 10
-145.872514
 20
53.0
 30
0.0
 11
-145.872514
 21
3.0
 31
0.0
  0
LINE
  8
0
  6
CONTINUOUS
 62
     3
  5
121
 10
-142.628352
 20
3.0
 30
0.0
 11
-142.628352
 21
53.0
 31
0.0
  0
LINE
  8
0
  6
CONTINUOUS
 62
     3
  5
122
 10
-139.59798
 20
53.0
 30
0.0
 11
-139.59798
 21
3.0
 31
0.0
  0
LINE
  8
0
  6
CONTINUOUS
 62
     3
  5
123
 10
-135.996106
 20
3.0
 30
0.0
 11
-135.996106
 21
53.0
 31
0.0
  0
LINE
  8
0
  6
CONTINUOUS
 62
     3
  5
124
 10
-67.87972
 20
53.0
 30
0.0
 11
-67.87972
 21
3.0
 31
0.0
  0
LINE
  8
0
  6
CONTINUOUS
 62
     3
  5
125
 10
-64.003894
 20
3.0
 30
0.0
 11
-64.003894
 21
53.0
 31
0.0
  0
LINE
  8
0
  6
CONTINUOUS
 62
     3
  5
126
 10
-132.12028
 20
53.0
 30
0.0
 11
-132.12028
 21
3.0
 31
0.0
  0
LINE
  8
0
  6
CONTINUOUS
 62
     3
  5
127
 10
-128.0
 20
3.0
 30
0.0
 11
-128.0
 21
53.0
 31
0.0
  0
LINE
  8
0
  6
CONTINUOUS
 62
     3
  5
128
 10
-123.666623
 20
53.0
 30
0.0
 11
-123.666623
 21
3.0
 31
0.0
  0
LINE
  8
0
  6
CONTINUOUS
 62
     3
  5
129
 10
-119.153128
 20
3.0
 30
0.0
 11
-119.153128
 21
53.0
 31
0.0
  0
LINE
  8
0
  6
CONTINUOUS
 62
     3
  5
12A
 10
-114.493867
 20
3.0
 30
0.0
 11
-114.493867
 21
53.0
 31
0.0
  0
LINE
  8
0
  6
CONTINUOUS
 62
     3
  5
12B
 10
-48.0
 20
57.0
 30
0.0
 11
-152.0
 21
57.0
 31
0.0
  0
LINE
  8
0
  6
CONTINUOUS
 62
     3
  5
12C
 10
-159.0
 20
53.0
 30
0.0
 11
-41.0
 21
53.0
 31
0.0
  0
ARC
  8
0
  6
CONTINUOUS
 62
     3
  5
12D
 10
-100.0
 20
96.0
 30
0.0
 40
50.0
 50
0.0
 51
180.0
  0
LINE
  8
0
  6
CONTINUOUS
 62
     3
  5
12E
 10
-48.0
 20
57.0
 30
0.0
 11
-50.0
 21
96.0
 31
0.0
  0
LINE
  8
0
  6
CONTINUOUS
 62
     3
  5
12F
 10
-152.0
 20
57.0
 30
0.0
 11
-150.0
 21
96.0
 31
0.0
  0
LINE
  8
0
  6
CONTINUOUS
 62
     3
  5
130
 10
-159.0
 20
53.0
 30
0.0
 11
-152.0
 21
57.0
 31
0.0
  0
LINE
  8
0
  6
CONTINUOUS
 62
     3
  5
131
 10
-160.0
 20
3.0
 30
0.0
 11
-159.0
 21
53.0
 31
0.0
  0
ARC
  8
0
  6
CONTINUOUS
 62
     3
  5
132
 10
-43.0
 20
3.0
 30
0.0
 40
3.0
 50
270.0
 51
0.0
  0
LINE
  8
0
  6
CONTINUOUS
 62
     3
  5
133
 10
-157.0
 20
0.0
 30
0.0
 11
-43.0
 21
0.0
 31
0.0
  0
LINE
  8
0
  6
CONTINUOUS
 62
     3
  5
134
 10
-41.0
 20
53.0
 30
0.0
 11
-48.0
 21
57.0
 31
0.0
  0
LINE
  8
0
  6
CONTINUOUS
 62
     3
  5
135
 10
-40.0
 20
3.0
 30
0.0
 11
-41.0
 21
53.0
 31
0.0
  0
LINE
  8
0
  6
CONTINUOUS
 62
     3
  5
136
 10
-109.721573
 20
53.0
 30
0.0
 11
-109.721573
 21
3.0
 31
0.0
  0
LINE
  8
0
  6
CONTINUOUS
 62
     3
  5
137
 10
-104.879338
 20
3.0
 30
0.0
 11
-104.879338
 21
53.0
 31
0.0
  0
LINE
  8
0
  6
CONTINUOUS
 62
     3
  5
138
 10
-90.278427
 20
53.0
 30
0.0
 11
-90.278427
 21
3.0
 31
0.0
  0
LINE
  8
0
  6
CONTINUOUS
 62
     3
  5
139
 10
-100.0
 20
3.0
 30
0.0
 11
-100.0
 21
53.0
 31
0.0
  0
LINE
  8
0
  6
CONTINUOUS
 62
     3
  5
13A
 10
-95.120662
 20
3.0
 30
0.0
 11
-95.120662
 21
53.0
 31
0.0
  0
LINE
  8
0
  6
CONTINUOUS
 62
     3
  5
13B
 10
-102.5
 20
-9.0
 30
0.0
 11
-102.5
 21
-21.5
 31
0.0
  0
LINE
  8
0
  6
CONTINUOUS
 62
     3
  5
13C
 10
-102.0
 20
-22.0
 30
0.0
 11
-98.0
 21
-22.0
 31
0.0
  0
LINE
  8
0
  6
CONTINUOUS
 62
     3
  5
13D
 10
-97.5
 20
-21.5
 30
0.0
 11
-97.5
 21
-9.0
 31
0.0
  0
LINE
  8
0
  6
CONTINUOUS
 62
     3
  5
13E
 10
-102.5
 20
-21.5
 30
0.0
 11
-102.0
 21
-22.0
 31
0.0
  0
LINE
  8
0
  6
CONTINUOUS
 62
     3
  5
13F
 10
-97.5
 20
-21.5
 30
0.0
 11
-98.0
 21
-22.0
 31
0.0
  0
LINE
  8
0
  6
CONTINUOUS
 62
     3
  5
140
 10
-132.810889
 20
-9.0
 30
0.0
 11
-132.810889
 21
-21.5
 31
0.0
  0
LINE
  8
0
  6
CONTINUOUS
 62
     3
  5
141
 10
-132.310889
 20
-22.0
 30
0.0
 11
-128.310889
 21
-22.0
 31
0.0
  0
LINE
  8
0
  6
CONTINUOUS
 62
     3
  5
142
 10
-127.810889
 20
-21.5
 30
0.0
 11
-127.810889
 21
-9.0
 31
0.0
  0
LINE
  8
0
  6
CONTINUOUS
 62
     3
  5
143
 10
-132.810889
 20
-21.5
 30
0.0
 11
-132.310889
 21
-22.0
 31
0.0
  0
LINE
  8
0
  6
CONTINUOUS
 62
     3
  5
144
 10
-127.810889
 20
-21.5
 30
0.0
 11
-128.310889
 21
-22.0
 31
0.0
  0
LINE
  8
0
  6
CONTINUOUS
 62
     3
  5
145
 10
-72.189111
 20
-9.0
 30
0.0
 11
-72.189111
 21
-21.5
 31
0.0
  0
LINE
  8
0
  6
CONTINUOUS
 62
     3
  5
146
 10
-71.689111
 20
-22.0
 30
0.0
 11
-67.689111
 21
-22.0
 31
0.0
  0
LINE
  8
0
  6
CONTINUOUS
 62
     3
  5
147
 10
-67.189111
 20
-21.5
 30
0.0
 11
-67.189111
 21
-9.0
 31
0.0
  0
LINE
  8
0
  6
CONTINUOUS
 62
     3
  5
148
 10
-72.189111
 20
-21.5
 30
0.0
 11
-71.689111
 21
-22.0
 31
0.0
  0
LINE
  8
0
  6
CONTINUOUS
 62
     3
  5
149
 10
-67.189111
 20
-21.5
 30
0.0
 11
-67.689111
 21
-22.0
 31
0.0
  0
LINE
  8
0
  6
CONTINUOUS
 62
     3
  5
14A
 10
-136.310889
 20
-4.9
 30
0.0
 11
-136.310889
 21
-4.4
 31
0.0
  0
LINE
  8
0
  6
CONTINUOUS
 62
     3
  5
14B
 10
-124.310889
 20
-4.9
 30
0.0
 11
-124.310889
 21
-4.4
 31
0.0
  0
LINE
  8
0
  6
CONTINUOUS
 62
     3
  5
14C
 10
-136.310889
 20
-4.9
 30
0.0
 11
-124.310889
 21
-4.9
 31
0.0
  0
LINE
  8
0
  6
CONTINUOUS
 62
     3
  5
14D
 10
-134.310889
 20
-9.0
 30
0.0
 11
-126.310889
 21
-9.0
 31
0.0
  0
LINE
  8
0
  6
CONTINUOUS
 62
     3
  5
14E
 10
-132.62029
 20
-8.642734
 30
0.0
 11
-132.62029
 21
-5.271367
 31
0.0
  0
LINE
  8
0
  6
CONTINUOUS
 62
     3
  5
14F
 10
-128.001488
 20
-8.642734
 30
0.0
 11
-128.001488
 21
-5.271367
 31
0.0
  0
LINE
  8
0
  6
CONTINUOUS
 62
     3
  5
150
 10
-125.692087
 20
-8.642734
 30
0.0
 11
-125.692087
 21
-5.559043
 31
0.0
  0
LINE
  8
0
  6
CONTINUOUS
 62
     3
  5
151
 10
-134.929691
 20
-8.642734
 30
0.0
 11
-134.929691
 21
-5.559043
 31
0.0
  0
LINE
  8
0
  6
CONTINUOUS
 62
     3
  5
152
 10
-134.310889
 20
-9.0
 30
0.0
 11
-134.929691
 21
-8.642734
 31
0.0
  0
LINE
  8
0
  6
CONTINUOUS
 62
     3
  5
153
 10
-126.310889
 20
-9.0
 30
0.0
 11
-125.692087
 21
-8.642734
 31
0.0
  0
ARC
  8
0
  6
CONTINUOUS
 62
     3
  5
154
 10
-133.774991
 20
-6.955342
 30
0.0
 40
2.044658
 50
244.384247
 51
304.384247
  0
ARC
  8
0
  6
CONTINUOUS
 62
     3
  5
155
 10
-130.310889
 20
-1.357266
 30
0.0
 40
7.642734
 50
252.412046
 51
287.587954
  0
ARC
  8
0
  6
CONTINUOUS
 62
     3
  5
156
 10
-126.846788
 20
-6.955342
 30
0.0
 40
2.044658
 50
235.615753
 51
295.615753
  0
ARC
  8
0
  6
CONTINUOUS
 62
     3
  5
157
 10
-134.175344
 20
-2.201256
 30
0.0
 40
3.441479
 50
257.338367
 51
296.862837
  0
ARC
  8
0
  6
CONTINUOUS
 62
     3
  5
158
 10
-130.310889
 20
1.723623
 30
0.0
 40
7.366357
 50
251.729322
 51
288.270678
  0
ARC
  8
0
  6
CONTINUOUS
 62
     3
  5
159
 10
-126.446435
 20
-2.201256
 30
0.0
 40
3.441479
 50
243.137163
 51
282.661633
  0
ARC
  8
0
  6
CONTINUOUS
 62
     3
  5
15A
 10
-135.910889
 20
-4.4
 30
0.0
 40
0.4
 50
90.0
 51
180.0
  0
ARC
  8
0
  6
CONTINUOUS
 62
     3
  5
15B
 10
-124.710889
 20
-4.4
 30
0.0
 40
0.4
 50
0.0
 51
90.0
  0
LINE
  8
0
  6
CONTINUOUS
 62
     3
  5
15C
 10
-134.929691
 20
-5.559043
 30
0.0
 11
-136.310889
 21
-4.9
 31
0.0
  0
LINE
  8
0
  6
CONTINUOUS
 62
     3
  5
15D
 10
-125.692087
 20
-5.559043
 30
0.0
 11
-124.310889
 21
-4.9
 31
0.0
  0
LINE
  8
0
  6
CONTINUOUS
 62
     3
  5
15E
 10
-94.0
 20
-4.9
 30
0.0
 11
-94.0
 21
-4.4
 31
0.0
  0
LINE
  8
0
  6
CONTINUOUS
 62
     3
  5
15F
 10
-106.0
 20
-4.9
 30
0.0
 11
-94.0
 21
-4.9
 31
0.0
  0
LINE
  8
0
  6
CONTINUOUS
 62
     3
  5
160
 10
-104.0
 20
-9.0
 30
0.0
 11
-96.0
 21
-9.0
 31
0.0
  0
ARC
  8
0
  6
CONTINUOUS
 62
     3
  5
161
 10
-96.535898
 20
-6.955342
 30
0.0
 40
2.044658
 50
235.615753
 51
295.615753
  0
ARC
  8
0
  6
CONTINUOUS
 62
     3
  5
162
 10
-96.135546
 20
-2.201256
 30
0.0
 40
3.441479
 50
243.137163
 51
282.661633
  0
LINE
  8
0
  6
CONTINUOUS
 62
     3
  5
163
 10
-95.381198
 20
-5.559043
 30
0.0
 11
-94.0
 21
-4.9
 31
0.0
  0
LINE
  8
0
  6
CONTINUOUS
 62
     3
  5
164
 10
-96.0
 20
-9.0
 30
0.0
 11
-95.381198
 21
-8.642734
 31
0.0
  0
LINE
  8
0
  6
CONTINUOUS
 62
     3
  5
165
 10
-95.381198
 20
-8.642734
 30
0.0
 11
-95.381198
 21
-5.559043
 31
0.0
  0
ARC
  8
0
  6
CONTINUOUS
 62
     3
  5
166
 10
-94.4
 20
-4.4
 30
0.0
 40
0.4
 50
0.0
 51
90.0
  0
LINE
  8
0
  6
CONTINUOUS
 62
     3
  5
167
 10
-104.618802
 20
-8.642734
 30
0.0
 11
-104.618802
 21
-5.559043
 31
0.0
  0
ARC
  8
0
  6
CONTINUOUS
 62
     3
  5
168
 10
-103.864454
 20
-2.201256
 30
0.0
 40
3.441479
 50
257.338367
 51
296.862837
  0
ARC
  8
0
  6
CONTINUOUS
 62
     3
  5
169
 10
-105.6
 20
-4.4
 30
0.0
 40
0.4
 50
90.0
 51
180.0
  0
LINE
  8
0
  6
CONTINUOUS
 62
     3
  5
16A
 10
-104.618802
 20
-5.559043
 30
0.0
 11
-106.0
 21
-4.9
 31
0.0
  0
LINE
  8
0
  6
CONTINUOUS
 62
     3
  5
16B
 10
-106.0
 20
-4.9
 30
0.0
 11
-106.0
 21
-4.4
 31
0.0
  0
LINE
  8
0
  6
CONTINUOUS
 62
     3
  5
16C
 10
-102.309401
 20
-8.642734
 30
0.0
 11
-102.309401
 21
-5.271367
 31
0.0
  0
ARC
  8
0
  6
CONTINUOUS
 62
     3
  5
16D
 10
-100.0
 20
1.723623
 30
0.0
 40
7.366357
 50
251.729322
 51
288.270678
  0
LINE
  8
0
  6
CONTINUOUS
 62
     3
  5
16E
 10
-97.690599
 20
-8.642734
 30
0.0
 11
-97.690599
 21
-5.271367
 31
0.0
  0
ARC
  8
0
  6
CONTINUOUS
 62
     3
  5
16F
 10
-100.0
 20
-1.357266
 30
0.0
 40
7.642734
 50
252.412046
 51
287.587954
  0
LINE
  8
0
  6
CONTINUOUS
 62
     3
  5
170
 10
-104.0
 20
-9.0
 30
0.0
 11
-104.618802
 21
-8.642734
 31
0.0
  0
ARC
  8
0
  6
CONTINUOUS
 62
     3
  5
171
 10
-103.464102
 20
-6.955342
 30
0.0
 40
2.044658
 50
244.384247
 51
304.384247
  0
LINE
  8
0
  6
CONTINUOUS
 62
     3
  5
172
 10
-63.689111
 20
-4.9
 30
0.0
 11
-63.689111
 21
-4.4
 31
0.0
  0
LINE
  8
0
  6
CONTINUOUS
 62
     3
  5
173
 10
-75.689111
 20
-4.9
 30
0.0
 11
-63.689111
 21
-4.9
 31
0.0
  0
LINE
  8
0
  6
CONTINUOUS
 62
     3
  5
174
 10
-73.689111
 20
-9.0
 30
0.0
 11
-65.689111
 21
-9.0
 31
0.0
  0
ARC
  8
0
  6
CONTINUOUS
 62
     3
  5
175
 10
-66.225009
 20
-6.955342
 30
0.0
 40
2.044658
 50
235.615753
 51
295.615753
  0
ARC
  8
0
  6
CONTINUOUS
 62
     3
  5
176
 10
-65.824656
 20
-2.201256
 30
0.0
 40
3.441479
 50
243.137163
 51
282.661633
  0
LINE
  8
0
  6
CONTINUOUS
 62
     3
  5
177
 10
-65.070309
 20
-5.559043
 30
0.0
 11
-63.689111
 21
-4.9
 31
0.0
  0
LINE
  8
0
  6
CONTINUOUS
 62
     3
  5
178
 10
-65.689111
 20
-9.0
 30
0.0
 11
-65.070309
 21
-8.642734
 31
0.0
  0
LINE
  8
0
  6
CONTINUOUS
 62
     3
  5
179
 10
-65.070309
 20
-8.642734
 30
0.0
 11
-65.070309
 21
-5.559043
 31
0.0
  0
ARC
  8
0
  6
CONTINUOUS
 62
     3
  5
17A
 10
-64.089111
 20
-4.4
 30
0.0
 40
0.4
 50
0.0
 51
90.0
  0
LINE
  8
0
  6
CONTINUOUS
 62
     3
  5
17B
 10
-74.307913
 20
-8.642734
 30
0.0
 11
-74.307913
 21
-5.559043
 31
0.0
  0
ARC
  8
0
  6
CONTINUOUS
 62
     3
  5
17C
 10
-73.553565
 20
-2.201256
 30
0.0
 40
3.441479
 50
257.338367
 51
296.862837
  0
ARC
  8
0
  6
CONTINUOUS
 62
     3
  5
17D
 10
-75.289111
 20
-4.4
 30
0.0
 40
0.4
 50
90.0
 51
180.0
  0
LINE
  8
0
  6
CONTINUOUS
 62
     3
  5
17E
 10
-74.307913
 20
-5.559043
 30
0.0
 11
-75.689111
 21
-4.9
 31
0.0
  0
LINE
  8
0
  6
CONTINUOUS
 62
     3
  5
17F
 10
-75.689111
 20
-4.9
 30
0.0
 11
-75.689111
 21
-4.4
 31
0.0
  0
LINE
  8
0
  6
CONTINUOUS
 62
     3
  5
180
 10
-71.998512
 20
-8.642734
 30
0.0
 11
-71.998512
 21
-5.271367
 31
0.0
  0
ARC
  8
0
  6
CONTINUOUS
 62
     3
  5
181
 10
-69.689111
 20
1.723623
 30
0.0
 40
7.366357
 50
251.729322
 51
288.270678
  0
LINE
  8
0
  6
CONTINUOUS
 62
     3
  5
182
 10
-67.37971
 20
-8.642734
 30
0.0
 11
-67.37971
 21
-5.271367
 31
0.0
  0
ARC
  8
0
  6
CONTINUOUS
 62
     3
  5
183
 10
-69.689111
 20
-1.357266
 30
0.0
 40
7.642734
 50
252.412046
 51
287.587954
  0
LINE
  8
0
  6
CONTINUOUS
 62
     3
  5
184
 10
-73.689111
 20
-9.0
 30
0.0
 11
-74.307913
 21
-8.642734
 31
0.0
  0
ARC
  8
0
  6
CONTINUOUS
 62
     3
  5
185
 10
-73.153212
 20
-6.955342
 30
0.0
 40
2.044658
 50
244.384247
 51
304.384247
  0
ARC
  8
0
  6
CONTINUOUS
 62
     3
  5
186
 10
-135.973642
 20
-3.0
 30
0.0
 40
1.0
 50
190.124672
 51
270.0
  0
ARC
  8
0
  6
CONTINUOUS
 62
     3
  5
187
 10
-124.648136
 20
-3.0
 30
0.0
 40
1.0
 50
270.0
 51
349.875328
  0
LINE
  8
0
  6
CONTINUOUS
 62
     3
  5
188
 10
-137.525175
 20
0.0
 30
0.0
 11
-136.958069
 21
-3.175791
 31
0.0
  0
LINE
  8
0
  6
CONTINUOUS
 62
     3
  5
189
 10
-123.663709
 20
-3.175791
 30
0.0
 11
-123.096603
 21
0.0
 31
0.0
  0
LINE
  8
0
  6
CONTINUOUS
 62
     3
  5
18A
 10
-135.973642
 20
-4.0
 30
0.0
 11
-124.648136
 21
-4.0
 31
0.0
  0
LINE
  8
0
  6
CONTINUOUS
 62
     3
  5
18B
 10
-105.662753
 20
-4.0
 30
0.0
 11
-94.337247
 21
-4.0
 31
0.0
  0
ARC
  8
0
  6
CONTINUOUS
 62
     3
  5
18C
 10
-94.337247
 20
-3.0
 30
0.0
 40
1.0
 50
270.0
 51
349.875328
  0
LINE
  8
0
  6
CONTINUOUS
 62
     3
  5
18D
 10
-93.35282
 20
-3.175791
 30
0.0
 11
-92.785714
 21
0.0
 31
0.0
  0
LINE
  8
0
  6
CONTINUOUS
 62
     3
  5
18E
 10
-107.214286
 20
0.0
 30
0.0
 11
-106.64718
 21
-3.175791
 31
0.0
  0
ARC
  8
0
  6
CONTINUOUS
 62
     3
  5
18F
 10
-105.662753
 20
-3.0
 30
0.0
 40
1.0
 50
190.124672
 51
270.0
  0
LINE
  8
0
  6
CONTINUOUS
 62
     3
  5
190
 10
-75.351864
 20
-4.0
 30
0.0
 11
-64.026358
 21
-4.0
 31
0.0
  0
ARC
  8
0
  6
CONTINUOUS
 62
     3
  5
191
 10
-64.026358
 20
-3.0
 30
0.0
 40
1.0
 50
270.0
 51
349.875328
  0
LINE
  8
0
  6
CONTINUOUS
 62
     3
  5
192
 10
-63.041931
 20
-3.175791
 30
0.0
 11
-62.474825
 21
0.0
 31
0.0
  0
LINE
  8
0
  6
CONTINUOUS
 62
     3
  5
193
 10
-76.903397
 20
0.0
 30
0.0
 11
-76.336291
 21
-3.175791
 31
0.0
  0
ARC
  8
0
  6
CONTINUOUS
 62
     3
  5
194
 10
-75.351864
 20
-3.0
 30
0.0
 40
1.0
 50
190.124672
 51
270.0
  0
ARC
  8
0
  6
CONTINUOUS
 62
     3
  5
195
 10
124.648136
 20
-3.0
 30
0.0
 40
1.0
 50
190.124672
 51
270.0
  0
LINE
  8
0
  6
CONTINUOUS
 62
     3
  5
196
 10
123.632318
 20
-3.0
 30
0.0
 11
123.663709
 21
-3.175791
 31
0.0
  0
LINE
  8
0
  6
CONTINUOUS
 62
     3
  5
197
 10
136.958069
 20
-3.175791
 30
0.0
 11
136.989461
 21
-3.0
 31
0.0
  0
ARC
  8
0
  6
CONTINUOUS
 62
     3
  5
198
 10
135.973642
 20
-3.0
 30
0.0
 40
1.0
 50
270.0
 51
349.875328
  0
LINE
  8
0
  6
CONTINUOUS
 62
     3
  5
199
 10
124.648136
 20
-4.0
 30
0.0
 11
135.973642
 21
-4.0
 31
0.0
  0
ARC
  8
0
  6
CONTINUOUS
 62
     3
  5
19A
 10
94.337247
 20
-3.0
 30
0.0
 40
1.0
 50
190.124672
 51
270.0
  0
LINE
  8
0
  6
CONTINUOUS
 62
     3
  5
19B
 10
92.785714
 20
0.0
 30
0.0
 11
93.35282
 21
-3.175791
 31
0.0
  0
LINE
  8
0
  6
CONTINUOUS
 62
     3
  5
19C
 10
106.64718
 20
-3.175791
 30
0.0
 11
107.214286
 21
0.0
 31
0.0
  0
ARC
  8
0
  6
CONTINUOUS
 62
     3
  5
19D
 10
105.662753
 20
-3.0
 30
0.0
 40
1.0
 50
270.0
 51
349.875328
  0
LINE
  8
0
  6
CONTINUOUS
 62
     3
  5
19E
 10
94.337247
 20
-4.0
 30
0.0
 11
105.662753
 21
-4.0
 31
0.0
  0
LINE
  8
0
  6
CONTINUOUS
 62
     3
  5
19F
 10
64.026358
 20
-4.0
 30
0.0
 11
75.351864
 21
-4.0
 31
0.0
  0
LINE
  8
0
  6
CONTINUOUS
 62
     3
  5
1A0
 10
76.336291
 20
-3.175791
 30
0.0
 11
76.903397
 21
0.0
 31
0.0
  0
LINE
  8
0
  6
CONTINUOUS
 62
     3
  5
1A1
 10
62.474825
 20
0.0
 30
0.0
 11
63.041931
 21
-3.175791
 31
0.0
  0
ARC
  8
0
  6
CONTINUOUS
 62
     3
  5
1A2
 10
75.351864
 20
-3.0
 30
0.0
 40
1.0
 50
270.0
 51
349.875328
  0
ARC
  8
0
  6
CONTINUOUS
 62
     3
  5
1A3
 10
64.026358
 20
-3.0
 30
0.0
 40
1.0
 50
190.124672
 51
270.0
  0
ARC
  8
0
  6
CONTINUOUS
 62
     3
  5
1A4
 10
126.846788
 20
-6.955342
 30
0.0
 40
2.044658
 50
244.384247
 51
304.384247
  0
LINE
  8
0
  6
CONTINUOUS
 62
     3
  5
1A5
 10
126.310889
 20
-9.0
 30
0.0
 11
125.692087
 21
-8.642734
 31
0.0
  0
ARC
  8
0
  6
CONTINUOUS
 62
     3
  5
1A6
 10
130.310889
 20
-1.357266
 30
0.0
 40
7.642734
 50
252.412046
 51
287.587954
  0
LINE
  8
0
  6
CONTINUOUS
 62
     3
  5
1A7
 10
132.62029
 20
-8.642734
 30
0.0
 11
132.62029
 21
-5.271367
 31
0.0
  0
ARC
  8
0
  6
CONTINUOUS
 62
     3
  5
1A8
 10
130.310889
 20
1.723623
 30
0.0
 40
7.366357
 50
251.729322
 51
288.270678
  0
LINE
  8
0
  6
CONTINUOUS
 62
     3
  5
1A9
 10
128.001488
 20
-8.642734
 30
0.0
 11
128.001488
 21
-5.271367
 31
0.0
  0
LINE
  8
0
  6
CONTINUOUS
 62
     3
  5
1AA
 10
124.310889
 20
-4.9
 30
0.0
 11
124.310889
 21
-4.4
 31
0.0
  0
LINE
  8
0
  6
CONTINUOUS
 62
     3
  5
1AB
 10
125.692087
 20
-5.559043
 30
0.0
 11
124.310889
 21
-4.9
 31
0.0
  0
ARC
  8
0
  6
CONTINUOUS
 62
     3
  5
1AC
 10
124.710889
 20
-4.4
 30
0.0
 40
0.4
 50
90.0
 51
180.0
  0
ARC
  8
0
  6
CONTINUOUS
 62
     3
  5
1AD
 10
126.446435
 20
-2.201256
 30
0.0
 40
3.441479
 50
257.338367
 51
296.862837
  0
LINE
  8
0
  6
CONTINUOUS
 62
     3
  5
1AE
 10
125.692087
 20
-8.642734
 30
0.0
 11
125.692087
 21
-5.559043
 31
0.0
  0
ARC
  8
0
  6
CONTINUOUS
 62
     3
  5
1AF
 10
135.910889
 20
-4.4
 30
0.0
 40
0.4
 50
0.0
 51
90.0
  0
LINE
  8
0
  6
CONTINUOUS
 62
     3
  5
1B0
 10
134.929691
 20
-8.642734
 30
0.0
 11
134.929691
 21
-5.559043
 31
0.0
  0
LINE
  8
0
  6
CONTINUOUS
 62
     3
  5
1B1
 10
134.310889
 20
-9.0
 30
0.0
 11
134.929691
 21
-8.642734
 31
0.0
  0
LINE
  8
0
  6
CONTINUOUS
 62
     3
  5
1B2
 10
134.929691
 20
-5.559043
 30
0.0
 11
136.310889
 21
-4.9
 31
0.0
  0
ARC
  8
0
  6
CONTINUOUS
 62
     3
  5
1B3
 10
134.175344
 20
-2.201256
 30
0.0
 40
3.441479
 50
243.137163
 51
282.661633
  0
ARC
  8
0
  6
CONTINUOUS
 62
     3
  5
1B4
 10
133.774991
 20
-6.955342
 30
0.0
 40
2.044658
 50
235.615753
 51
295.615753
  0
LINE
  8
0
  6
CONTINUOUS
 62
     3
  5
1B5
 10
126.310889
 20
-9.0
 30
0.0
 11
134.310889
 21
-9.0
 31
0.0
  0
LINE
  8
0
  6
CONTINUOUS
 62
     3
  5
1B6
 10
124.310889
 20
-4.9
 30
0.0
 11
136.310889
 21
-4.9
 31
0.0
  0
LINE
  8
0
  6
CONTINUOUS
 62
     3
  5
1B7
 10
136.310889
 20
-4.9
 30
0.0
 11
136.310889
 21
-4.4
 31
0.0
  0
ARC
  8
0
  6
CONTINUOUS
 62
     3
  5
1B8
 10
96.535898
 20
-6.955342
 30
0.0
 40
2.044658
 50
244.384247
 51
304.384247
  0
LINE
  8
0
  6
CONTINUOUS
 62
     3
  5
1B9
 10
96.0
 20
-9.0
 30
0.0
 11
95.381198
 21
-8.642734
 31
0.0
  0
ARC
  8
0
  6
CONTINUOUS
 62
     3
  5
1BA
 10
100.0
 20
-1.357266
 30
0.0
 40
7.642734
 50
252.412046
 51
287.587954
  0
LINE
  8
0
  6
CONTINUOUS
 62
     3
  5
1BB
 10
102.309401
 20
-8.642734
 30
0.0
 11
102.309401
 21
-5.271367
 31
0.0
  0
ARC
  8
0
  6
CONTINUOUS
 62
     3
  5
1BC
 10
100.0
 20
1.723623
 30
0.0
 40
7.366357
 50
251.729322
 51
288.270678
  0
LINE
  8
0
  6
CONTINUOUS
 62
     3
  5
1BD
 10
97.690599
 20
-8.642734
 30
0.0
 11
97.690599
 21
-5.271367
 31
0.0
  0
LINE
  8
0
  6
CONTINUOUS
 62
     3
  5
1BE
 10
94.0
 20
-4.9
 30
0.0
 11
94.0
 21
-4.4
 31
0.0
  0
LINE
  8
0
  6
CONTINUOUS
 62
     3
  5
1BF
 10
95.381198
 20
-5.559043
 30
0.0
 11
94.0
 21
-4.9
 31
0.0
  0
ARC
  8
0
  6
CONTINUOUS
 62
     3
  5
1C0
 10
94.4
 20
-4.4
 30
0.0
 40
0.4
 50
90.0
 51
180.0
  0
ARC
  8
0
  6
CONTINUOUS
 62
     3
  5
1C1
 10
96.135546
 20
-2.201256
 30
0.0
 40
3.441479
 50
257.338367
 51
296.862837
  0
LINE
  8
0
  6
CONTINUOUS
 62
     3
  5
1C2
 10
95.381198
 20
-8.642734
 30
0.0
 11
95.381198
 21
-5.559043
 31
0.0
  0
ARC
  8
0
  6
CONTINUOUS
 62
     3
  5
1C3
 10
105.6
 20
-4.4
 30
0.0
 40
0.4
 50
0.0
 51
90.0
  0
LINE
  8
0
  6
CONTINUOUS
 62
     3
  5
1C4
 10
104.618802
 20
-8.642734
 30
0.0
 11
104.618802
 21
-5.559043
 31
0.0
  0
LINE
  8
0
  6
CONTINUOUS
 62
     3
  5
1C5
 10
104.0
 20
-9.0
 30
0.0
 11
104.618802
 21
-8.642734
 31
0.0
  0
LINE
  8
0
  6
CONTINUOUS
 62
     3
  5
1C6
 10
104.618802
 20
-5.559043
 30
0.0
 11
106.0
 21
-4.9
 31
0.0
  0
ARC
  8
0
  6
CONTINUOUS
 62
     3
  5
1C7
 10
103.864454
 20
-2.201256
 30
0.0
 40
3.441479
 50
243.137163
 51
282.661633
  0
ARC
  8
0
  6
CONTINUOUS
 62
     3
  5
1C8
 10
103.464102
 20
-6.955342
 30
0.0
 40
2.044658
 50
235.615753
 51
295.615753
  0
LINE
  8
0
  6
CONTINUOUS
 62
     3
  5
1C9
 10
96.0
 20
-9.0
 30
0.0
 11
104.0
 21
-9.0
 31
0.0
  0
LINE
  8
0
  6
CONTINUOUS
 62
     3
  5
1CA
 10
94.0
 20
-4.9
 30
0.0
 11
106.0
 21
-4.9
 31
0.0
  0
LINE
  8
0
  6
CONTINUOUS
 62
     3
  5
1CB
 10
106.0
 20
-4.9
 30
0.0
 11
106.0
 21
-4.4
 31
0.0
  0
LINE
  8
0
  6
CONTINUOUS
 62
     3
  5
1CC
 10
74.307913
 20
-5.559043
 30
0.0
 11
75.689111
 21
-4.9
 31
0.0
  0
LINE
  8
0
  6
CONTINUOUS
 62
     3
  5
1CD
 10
65.070309
 20
-5.559043
 30
0.0
 11
63.689111
 21
-4.9
 31
0.0
  0
ARC
  8
0
  6
CONTINUOUS
 62
     3
  5
1CE
 10
75.289111
 20
-4.4
 30
0.0
 40
0.4
 50
0.0
 51
90.0
  0
ARC
  8
0
  6
CONTINUOUS
 62
     3
  5
1CF
 10
64.089111
 20
-4.4
 30
0.0
 40
0.4
 50
90.0
 51
180.0
  0
ARC
  8
0
  6
CONTINUOUS
 62
     3
  5
1D0
 10
73.553565
 20
-2.201256
 30
0.0
 40
3.441479
 50
243.137163
 51
282.661633
  0
ARC
  8
0
  6
CONTINUOUS
 62
     3
  5
1D1
 10
69.689111
 20
1.723623
 30
0.0
 40
7.366357
 50
251.729322
 51
288.270678
  0
ARC
  8
0
  6
CONTINUOUS
 62
     3
  5
1D2
 10
65.824656
 20
-2.201256
 30
0.0
 40
3.441479
 50
257.338367
 51
296.862837
  0
ARC
  8
0
  6
CONTINUOUS
 62
     3
  5
1D3
 10
73.153212
 20
-6.955342
 30
0.0
 40
2.044658
 50
235.615753
 51
295.615753
  0
ARC
  8
0
  6
CONTINUOUS
 62
     3
  5
1D4
 10
69.689111
 20
-1.357266
 30
0.0
 40
7.642734
 50
252.412046
 51
287.587954
  0
ARC
  8
0
  6
CONTINUOUS
 62
     3
  5
1D5
 10
66.225009
 20
-6.955342
 30
0.0
 40
2.044658
 50
244.384247
 51
304.384247
  0
LINE
  8
0
  6
CONTINUOUS
 62
     3
  5
1D6
 10
73.689111
 20
-9.0
 30
0.0
 11
74.307913
 21
-8.642734
 31
0.0
  0
LINE
  8
0
  6
CONTINUOUS
 62
     3
  5
1D7
 10
65.689111
 20
-9.0
 30
0.0
 11
65.070309
 21
-8.642734
 31
0.0
  0
LINE
  8
0
  6
CONTINUOUS
 62
     3
  5
1D8
 10
65.070309
 20
-8.642734
 30
0.0
 11
65.070309
 21
-5.559043
 31
0.0
  0
LINE
  8
0
  6
CONTINUOUS
 62
     3
  5
1D9
 10
74.307913
 20
-8.642734
 30
0.0
 11
74.307913
 21
-5.559043
 31
0.0
  0
LINE
  8
0
  6
CONTINUOUS
 62
     3
  5
1DA
 10
71.998512
 20
-8.642734
 30
0.0
 11
71.998512
 21
-5.271367
 31
0.0
  0
LINE
  8
0
  6
CONTINUOUS
 62
     3
  5
1DB
 10
67.37971
 20
-8.642734
 30
0.0
 11
67.37971
 21
-5.271367
 31
0.0
  0
LINE
  8
0
  6
CONTINUOUS
 62
     3
  5
1DC
 10
65.689111
 20
-9.0
 30
0.0
 11
73.689111
 21
-9.0
 31
0.0
  0
LINE
  8
0
  6
CONTINUOUS
 62
     3
  5
1DD
 10
63.689111
 20
-4.9
 30
0.0
 11
75.689111
 21
-4.9
 31
0.0
  0
LINE
  8
0
  6
CONTINUOUS
 62
     3
  5
1DE
 10
75.689111
 20
-4.9
 30
0.0
 11
75.689111
 21
-4.4
 31
0.0
  0
LINE
  8
0
  6
CONTINUOUS
 62
     3
  5
1DF
 10
63.689111
 20
-4.9
 30
0.0
 11
63.689111
 21
-4.4
 31
0.0
  0
LINE
  8
0
  6
CONTINUOUS
 62
     3
  5
1E0
 10
132.810889
 20
-21.5
 30
0.0
 11
132.310889
 21
-22.0
 31
0.0
  0
LINE
  8
0
  6
CONTINUOUS
 62
     3
  5
1E1
 10
127.810889
 20
-21.5
 30
0.0
 11
128.310889
 21
-22.0
 31
0.0
  0
LINE
  8
0
  6
CONTINUOUS
 62
     3
  5
1E2
 10
132.810889
 20
-21.5
 30
0.0
 11
132.810889
 21
-9.0
 31
0.0
  0
LINE
  8
0
  6
CONTINUOUS
 62
     3
  5
1E3
 10
128.310889
 20
-22.0
 30
0.0
 11
132.310889
 21
-22.0
 31
0.0
  0
LINE
  8
0
  6
CONTINUOUS
 62
     3
  5
1E4
 10
127.810889
 20
-9.0
 30
0.0
 11
127.810889
 21
-21.5
 31
0.0
  0
LINE
  8
0
  6
CONTINUOUS
 62
     3
  5
1E5
 10
72.189111
 20
-21.5
 30
0.0
 11
71.689111
 21
-22.0
 31
0.0
  0
LINE
  8
0
  6
CONTINUOUS
 62
     3
  5
1E6
 10
67.189111
 20
-21.5
 30
0.0
 11
67.689111
 21
-22.0
 31
0.0
  0
LINE
  8
0
  6
CONTINUOUS
 62
     3
  5
1E7
 10
72.189111
 20
-21.5
 30
0.0
 11
72.189111
 21
-9.0
 31
0.0
  0
LINE
  8
0
  6
CONTINUOUS
 62
     3
  5
1E8
 10
67.689111
 20
-22.0
 30
0.0
 11
71.689111
 21
-22.0
 31
0.0
  0
LINE
  8
0
  6
CONTINUOUS
 62
     3
  5
1E9
 10
67.189111
 20
-9.0
 30
0.0
 11
67.189111
 21
-21.5
 31
0.0
  0
LINE
  8
0
  6
CONTINUOUS
 62
     3
  5
1EA
 10
102.5
 20
-21.5
 30
0.0
 11
102.0
 21
-22.0
 31
0.0
  0
LINE
  8
0
  6
CONTINUOUS
 62
     3
  5
1EB
 10
97.5
 20
-21.5
 30
0.0
 11
98.0
 21
-22.0
 31
0.0
  0
LINE
  8
0
  6
CONTINUOUS
 62
     3
  5
1EC
 10
102.5
 20
-21.5
 30
0.0
 11
102.5
 21
-9.0
 31
0.0
  0
LINE
  8
0
  6
CONTINUOUS
 62
     3
  5
1ED
 10
98.0
 20
-22.0
 30
0.0
 11
102.0
 21
-22.0
 31
0.0
  0
LINE
  8
0
  6
CONTINUOUS
 62
     3
  5
1EE
 10
97.5
 20
-9.0
 30
0.0
 11
97.5
 21
-21.5
 31
0.0
  0
LINE
  8
0
  6
CONTINUOUS
 62
     3
  5
1EF
 10
104.879338
 20
3.0
 30
0.0
 11
104.879338
 21
53.0
 31
0.0
  0
LINE
  8
0
  6
CONTINUOUS
 62
     3
  5
1F0
 10
100.0
 20
3.0
 30
0.0
 11
100.0
 21
53.0
 31
0.0
  0
LINE
  8
0
  6
CONTINUOUS
 62
     3
  5
1F1
 10
109.721573
 20
53.0
 30
0.0
 11
109.721573
 21
3.0
 31
0.0
  0
LINE
  8
0
  6
CONTINUOUS
 62
     3
  5
1F2
 10
95.120662
 20
3.0
 30
0.0
 11
95.120662
 21
53.0
 31
0.0
  0
LINE
  8
0
  6
CONTINUOUS
 62
     3
  5
1F3
 10
90.278427
 20
53.0
 30
0.0
 11
90.278427
 21
3.0
 31
0.0
  0
LINE
  8
0
  6
CONTINUOUS
 62
     3
  5
1F4
 10
160.0
 20
3.0
 30
0.0
 11
159.0
 21
53.0
 31
0.0
  0
LINE
  8
0
  6
CONTINUOUS
 62
     3
  5
1F5
 10
159.0
 20
53.0
 30
0.0
 11
152.0
 21
57.0
 31
0.0
  0
LINE
  8
0
  6
CONTINUOUS
 62
     3
  5
1F6
 10
43.0
 20
0.0
 30
0.0
 11
140.549408
 21
0.0
 31
0.0
  0
ARC
  8
0
  6
CONTINUOUS
 62
     3
  5
1F7
 10
157.0
 20
3.0
 30
0.0
 40
3.0
 50
270.0
 51
0.0
  0
LINE
  8
0
  6
CONTINUOUS
 62
     3
  5
1F8
 10
40.0
 20
3.0
 30
0.0
 11
41.0
 21
53.0
 31
0.0
  0
LINE
  8
0
  6
CONTINUOUS
 62
     3
  5
1F9
 10
41.0
 20
53.0
 30
0.0
 11
48.0
 21
57.0
 31
0.0
  0
LINE
  8
0
  6
CONTINUOUS
 62
     3
  5
1FA
 10
48.0
 20
57.0
 30
0.0
 11
50.0
 21
96.0
 31
0.0
  0
LINE
  8
0
  6
CONTINUOUS
 62
     3
  5
1FB
 10
152.0
 20
57.0
 30
0.0
 11
150.0
 21
96.0
 31
0.0
  0
ARC
  8
0
  6
CONTINUOUS
 62
     3
  5
1FC
 10
100.0
 20
96.0
 30
0.0
 40
50.0
 50
0.0
 51
180.0
  0
LINE
  8
0
  6
CONTINUOUS
 62
     3
  5
1FD
 10
41.0
 20
53.0
 30
0.0
 11
159.0
 21
53.0
 31
0.0
  0
LINE
  8
0
  6
CONTINUOUS
 62
     3
  5
1FE
 10
152.0
 20
57.0
 30
0.0
 11
48.0
 21
57.0
 31
0.0
  0
LINE
  8
0
  6
CONTINUOUS
 62
     3
  5
1FF
 10
85.506133
 20
3.0
 30
0.0
 11
85.506133
 21
53.0
 31
0.0
  0
LINE
  8
0
  6
CONTINUOUS
 62
     3
  5
200
 10
80.846872
 20
3.0
 30
0.0
 11
80.846872
 21
53.0
 31
0.0
  0
LINE
  8
0
  6
CONTINUOUS
 62
     3
  5
201
 10
76.333377
 20
53.0
 30
0.0
 11
76.333377
 21
3.0
 31
0.0
  0
LINE
  8
0
  6
CONTINUOUS
 62
     3
  5
202
 10
72.0
 20
3.0
 30
0.0
 11
72.0
 21
53.0
 31
0.0
  0
LINE
  8
0
  6
CONTINUOUS
 62
     3
  5
203
 10
67.87972
 20
53.0
 30
0.0
 11
67.87972
 21
3.0
 31
0.0
  0
LINE
  8
0
  6
CONTINUOUS
 62
     3
  5
204
 10
135.996106
 20
3.0
 30
0.0
 11
135.996106
 21
53.0
 31
0.0
  0
LINE
  8
0
  6
CONTINUOUS
 62
     3
  5
205
 10
132.12028
 20
53.0
 30
0.0
 11
132.12028
 21
3.0
 31
0.0
  0
LINE
  8
0
  6
CONTINUOUS
 62
     3
  5
206
 10
64.003894
 20
3.0
 30
0.0
 11
64.003894
 21
53.0
 31
0.0
  0
LINE
  8
0
  6
CONTINUOUS
 62
     3
  5
207
 10
60.40202
 20
53.0
 30
0.0
 11
60.40202
 21
3.0
 31
0.0
  0
LINE
  8
0
  6
CONTINUOUS
 62
     3
  5
208
 10
57.371648
 20
3.0
 30
0.0
 11
57.371648
 21
53.0
 31
0.0
  0
LINE
  8
0
  6
CONTINUOUS
 62
     3
  5
209
 10
54.127486
 20
53.0
 30
0.0
 11
54.127486
 21
3.0
 31
0.0
  0
LINE
  8
0
  6
CONTINUOUS
 62
     3
  5
20A
 10
51.502577
 20
3.0
 30
0.0
 11
51.502577
 21
53.0
 31
0.0
  0
LINE
  8
0
  6
CONTINUOUS
 62
     3
  5
20B
 10
128.0
 20
3.0
 30
0.0
 11
128.0
 21
53.0
 31
0.0
  0
LINE
  8
0
  6
CONTINUOUS
 62
     3
  5
20C
 10
49.246764
 20
53.0
 30
0.0
 11
49.246764
 21
3.0
 31
0.0
  0
LINE
  8
0
  6
CONTINUOUS
 62
     3
  5
20D
 10
47.377213
 20
3.0
 30
0.0
 11
47.377213
 21
53.0
 31
0.0
  0
LINE
  8
0
  6
CONTINUOUS
 62
     3
  5
20E
 10
45.908154
 20
53.0
 30
0.0
 11
45.908154
 21
3.0
 31
0.0
  0
LINE
  8
0
  6
CONTINUOUS
 62
     3
  5
20F
 10
44.850766
 20
3.0
 30
0.0
 11
44.850766
 21
53.0
 31
0.0
  0
LINE
  8
0
  6
CONTINUOUS
 62
     3
  5
210
 10
123.666623
 20
53.0
 30
0.0
 11
123.666623
 21
3.0
 31
0.0
  0
LINE
  8
0
  6
CONTINUOUS
 62
     3
  5
211
 10
44.213097
 20
53.0
 30
0.0
 11
44.213097
 21
3.0
 31
0.0
  0
LINE
  8
0
  6
CONTINUOUS
 62
     3
  5
212
 10
44.0
 20
3.0
 30
0.0
 11
44.0
 21
53.0
 31
0.0
  0
LINE
  8
0
  6
CONTINUOUS
 62
     3
  5
213
 10
156.0
 20
3.0
 30
0.0
 11
156.0
 21
53.0
 31
0.0
  0
LINE
  8
0
  6
CONTINUOUS
 62
     3
  5
214
 10
155.786903
 20
53.0
 30
0.0
 11
155.786903
 21
3.0
 31
0.0
  0
LINE
  8
0
  6
CONTINUOUS
 62
     3
  5
215
 10
155.149234
 20
3.0
 30
0.0
 11
155.149234
 21
53.0
 31
0.0
  0
LINE
  8
0
  6
CONTINUOUS
 62
     3
  5
216
 10
154.091846
 20
53.0
 30
0.0
 11
154.091846
 21
3.0
 31
0.0
  0
LINE
  8
0
  6
CONTINUOUS
 62
     3
  5
217
 10
152.622787
 20
3.0
 30
0.0
 11
152.622787
 21
53.0
 31
0.0
  0
LINE
  8
0
  6
CONTINUOUS
 62
     3
  5
218
 10
150.753236
 20
53.0
 30
0.0
 11
150.753236
 21
3.0
 31
0.0
  0
LINE
  8
0
  6
CONTINUOUS
 62
     3
  5
219
 10
148.497423
 20
3.0
 30
0.0
 11
148.497423
 21
53.0
 31
0.0
  0
LINE
  8
0
  6
CONTINUOUS
 62
     3
  5
21A
 10
145.872514
 20
53.0
 30
0.0
 11
145.872514
 21
3.0
 31
0.0
  0
LINE
  8
0
  6
CONTINUOUS
 62
     3
  5
21B
 10
119.153128
 20
3.0
 30
0.0
 11
119.153128
 21
53.0
 31
0.0
  0
LINE
  8
0
  6
CONTINUOUS
 62
     3
  5
21C
 10
114.493867
 20
3.0
 30
0.0
 11
114.493867
 21
53.0
 31
0.0
  0
LINE
  8
0
  6
CONTINUOUS
 62
     3
  5
21D
 10
40.0
 20
3.0
 30
0.0
 11
160.0
 21
3.0
 31
0.0
  0
ARC
  8
0
  6
CONTINUOUS
 62
     3
  5
21E
 10
43.0
 20
3.0
 30
0.0
 40
3.0
 50
180.0
 51
270.0
  0
LINE
  8
0
  6
CONTINUOUS
 62
     3
  5
21F
 10
142.628352
 20
3.0
 30
0.0
 11
142.628352
 21
53.0
 31
0.0
  0
LINE
  8
0
  6
CONTINUOUS
 62
     3
  5
220
 10
139.59798
 20
53.0
 30
0.0
 11
139.59798
 21
3.0
 31
0.0
  0
POLYLINE
  8
0
  6
CONTINUOUS
 62
     3
  5
221
 66
     1
 10
0.0
 20
0.0
 30
0.0
  0
VERTEX
  8
0
  6
CONTINUOUS
 62
     3
  5
38B
 10
-117.436211
 20
-120.984556
 30
0.0
  0
VERTEX
  8
0
  6
CONTINUOUS
 62
     3
  5
38C
 10
-117.434202
 20
-121.183718
 30
0.0
  0
VERTEX
  8
0
  6
CONTINUOUS
 62
     3
  5
38D
 10
-117.433253
 20
-121.382953
 30
0.0
  0
VERTEX
  8
0
  6
CONTINUOUS
 62
     3
  5
38E
 10
-117.433363
 20
-121.582273
 30
0.0
  0
VERTEX
  8
0
  6
CONTINUOUS
 62
     3
  5
38F
 10
-117.434528
 20
-121.78169
 30
0.0
  0
VERTEX
  8
0
  6
CONTINUOUS
 62
     3
  5
390
 10
-117.436746
 20
-121.981215
 30
0.0
  0
VERTEX
  8
0
  6
CONTINUOUS
 62
     3
  5
391
 10
-117.440015
 20
-122.18086
 30
0.0
  0
VERTEX
  8
0
  6
CONTINUOUS
 62
     3
  5
392
 10
-117.444331
 20
-122.380636
 30
0.0
  0
VERTEX
  8
0
  6
CONTINUOUS
 62
     3
  5
393
 10
-117.449692
 20
-122.580555
 30
0.0
  0
VERTEX
  8
0
  6
CONTINUOUS
 62
     3
  5
394
 10
-117.456095
 20
-122.780628
 30
0.0
  0
VERTEX
  8
0
  6
CONTINUOUS
 62
     3
  5
395
 10
-117.463538
 20
-122.980866
 30
0.0
  0
VERTEX
  8
0
  6
CONTINUOUS
 62
     3
  5
396
 10
-117.472018
 20
-123.181282
 30
0.0
  0
VERTEX
  8
0
  6
CONTINUOUS
 62
     3
  5
397
 10
-117.481533
 20
-123.381886
 30
0.0
  0
VERTEX
  8
0
  6
CONTINUOUS
 62
     3
  5
398
 10
-117.492079
 20
-123.58269
 30
0.0
  0
VERTEX
  8
0
  6
CONTINUOUS
 62
     3
  5
399
 10
-117.503655
 20
-123.783706
 30
0.0
  0
VERTEX
  8
0
  6
CONTINUOUS
 62
     3
  5
39A
 10
-117.516258
 20
-123.984945
 30
0.0
  0
VERTEX
  8
0
  6
CONTINUOUS
 62
     3
  5
39B
 10
-117.529884
 20
-124.186419
 30
0.0
  0
VERTEX
  8
0
  6
CONTINUOUS
 62
     3
  5
39C
 10
-117.587778
 20
-124.917796
 30
0.0
  0
VERTEX
  8
0
  6
CONTINUOUS
 62
     3
  5
39D
 10
-117.659154
 20
-125.651721
 30
0.0
  0
VERTEX
  8
0
  6
CONTINUOUS
 62
     3
  5
39E
 10
-117.744105
 20
-126.387519
 30
0.0
  0
VERTEX
  8
0
  6
CONTINUOUS
 62
     3
  5
39F
 10
-117.842725
 20
-127.12451
 30
0.0
  0
VERTEX
  8
0
  6
CONTINUOUS
 62
     3
  5
3A0
 10
-117.955107
 20
-127.862018
 30
0.0
  0
VERTEX
  8
0
  6
CONTINUOUS
 62
     3
  5
3A1
 10
-118.081344
 20
-128.599366
 30
0.0
  0
VERTEX
  8
0
  6
CONTINUOUS
 62
     3
  5
3A2
 10
-118.221531
 20
-129.335876
 30
0.0
  0
VERTEX
  8
0
  6
CONTINUOUS
 62
     3
  5
3A3
 10
-118.375761
 20
-130.07087
 30
0.0
  0
VERTEX
  8
0
  6
CONTINUOUS
 62
     3
  5
3A4
 10
-118.544128
 20
-130.803673
 30
0.0
  0
VERTEX
  8
0
  6
CONTINUOUS
 62
     3
  5
3A5
 10
-118.726725
 20
-131.533605
 30
0.0
  0
VERTEX
  8
0
  6
CONTINUOUS
 62
     3
  5
3A6
 10
-118.923646
 20
-132.25999
 30
0.0
  0
VERTEX
  8
0
  6
CONTINUOUS
 62
     3
  5
3A7
 10
-119.134985
 20
-132.982151
 30
0.0
  0
VERTEX
  8
0
  6
CONTINUOUS
 62
     3
  5
3A8
 10
-119.360834
 20
-133.69941
 30
0.0
  0
VERTEX
  8
0
  6
CONTINUOUS
 62
     3
  5
3A9
 10
-119.601288
 20
-134.411089
 30
0.0
  0
VERTEX
  8
0
  6
CONTINUOUS
 62
     3
  5
3AA
 10
-119.85644
 20
-135.116513
 30
0.0
  0
VERTEX
  8
0
  6
CONTINUOUS
 62
     3
  5
3AB
 10
-120.126385
 20
-135.815002
 30
0.0
  0
VERTEX
  8
0
  6
CONTINUOUS
 62
     3
  5
3AC
 10
-120.411214
 20
-136.50588
 30
0.0
  0
VERTEX
  8
0
  6
CONTINUOUS
 62
     3
  5
3AD
 10
-120.711023
 20
-137.18847
 30
0.0
  0
VERTEX
  8
0
  6
CONTINUOUS
 62
     3
  5
3AE
 10
-121.025904
 20
-137.862093
 30
0.0
  0
VERTEX
  8
0
  6
CONTINUOUS
 62
     3
  5
3AF
 10
-121.355952
 20
-138.526074
 30
0.0
  0
VERTEX
  8
0
  6
CONTINUOUS
 62
     3
  5
3B0
 10
-121.701259
 20
-139.179734
 30
0.0
  0
VERTEX
  8
0
  6
CONTINUOUS
 62
     3
  5
3B1
 10
-122.06192
 20
-139.822396
 30
0.0
  0
VERTEX
  8
0
  6
CONTINUOUS
 62
     3
  5
3B2
 10
-122.438028
 20
-140.453383
 30
0.0
  0
VERTEX
  8
0
  6
CONTINUOUS
 62
     3
  5
3B3
 10
-122.829676
 20
-141.072017
 30
0.0
  0
VERTEX
  8
0
  6
CONTINUOUS
 62
     3
  5
3B4
 10
-123.236959
 20
-141.677621
 30
0.0
  0
VERTEX
  8
0
  6
CONTINUOUS
 62
     3
  5
3B5
 10
-123.65997
 20
-142.269519
 30
0.0
  0
VERTEX
  8
0
  6
CONTINUOUS
 62
     3
  5
3B6
 10
-124.098802
 20
-142.847031
 30
0.0
  0
VERTEX
  8
0
  6
CONTINUOUS
 62
     3
  5
3B7
 10
-124.553549
 20
-143.409482
 30
0.0
  0
VERTEX
  8
0
  6
CONTINUOUS
 62
     3
  5
3B8
 10
-125.024305
 20
-143.956193
 30
0.0
  0
VERTEX
  8
0
  6
CONTINUOUS
 62
     3
  5
3B9
 10
-125.511163
 20
-144.486488
 30
0.0
  0
VERTEX
  8
0
  6
CONTINUOUS
 62
     3
  5
3BA
 10
-126.014217
 20
-144.999689
 30
0.0
  0
VERTEX
  8
0
  6
CONTINUOUS
 62
     3
  5
3BB
 10
-126.53356
 20
-145.495119
 30
0.0
  0
VERTEX
  8
0
  6
CONTINUOUS
 62
     3
  5
3BC
 10
-127.21117
 20
-146.093414
 30
0.0
  0
VERTEX
  8
0
  6
CONTINUOUS
 62
     3
  5
3BD
 10
-127.913644
 20
-146.662857
 30
0.0
  0
VERTEX
  8
0
  6
CONTINUOUS
 62
     3
  5
3BE
 10
-128.639827
 20
-147.203895
 30
0.0
  0
VERTEX
  8
0
  6
CONTINUOUS
 62
     3
  5
3BF
 10
-129.388564
 20
-147.716976
 30
0.0
  0
VERTEX
  8
0
  6
CONTINUOUS
 62
     3
  5
3C0
 10
-130.158699
 20
-148.202545
 30
0.0
  0
VERTEX
  8
0
  6
CONTINUOUS
 62
     3
  5
3C1
 10
-130.949077
 20
-148.661052
 30
0.0
  0
VERTEX
  8
0
  6
CONTINUOUS
 62
     3
  5
3C2
 10
-131.758544
 20
-149.092941
 30
0.0
  0
VERTEX
  8
0
  6
CONTINUOUS
 62
     3
  5
3C3
 10
-132.585944
 20
-149.498662
 30
0.0
  0
VERTEX
  8
0
  6
CONTINUOUS
 62
     3
  5
3C4
 10
-133.430121
 20
-149.878661
 30
0.0
  0
VERTEX
  8
0
  6
CONTINUOUS
 62
     3
  5
3C5
 10
-134.289922
 20
-150.233386
 30
0.0
  0
VERTEX
  8
0
  6
CONTINUOUS
 62
     3
  5
3C6
 10
-135.16419
 20
-150.563283
 30
0.0
  0
VERTEX
  8
0
  6
CONTINUOUS
 62
     3
  5
3C7
 10
-136.051771
 20
-150.8688
 30
0.0
  0
VERTEX
  8
0
  6
CONTINUOUS
 62
     3
  5
3C8
 10
-136.951509
 20
-151.150384
 30
0.0
  0
VERTEX
  8
0
  6
CONTINUOUS
 62
     3
  5
3C9
 10
-137.862249
 20
-151.408482
 30
0.0
  0
VERTEX
  8
0
  6
CONTINUOUS
 62
     3
  5
3CA
 10
-138.782837
 20
-151.643541
 30
0.0
  0
VERTEX
  8
0
  6
CONTINUOUS
 62
     3
  5
3CB
 10
-139.712116
 20
-151.856009
 30
0.0
  0
VERTEX
  8
0
  6
CONTINUOUS
 62
     3
  5
3CC
 10
-140.648933
 20
-152.046333
 30
0.0
  0
VERTEX
  8
0
  6
CONTINUOUS
 62
     3
  5
3CD
 10
-141.592131
 20
-152.21496
 30
0.0
  0
VERTEX
  8
0
  6
CONTINUOUS
 62
     3
  5
3CE
 10
-142.540555
 20
-152.362338
 30
0.0
  0
VERTEX
  8
0
  6
CONTINUOUS
 62
     3
  5
3CF
 10
-143.493051
 20
-152.488912
 30
0.0
  0
VERTEX
  8
0
  6
CONTINUOUS
 62
     3
  5
3D0
 10
-144.448464
 20
-152.595132
 30
0.0
  0
VERTEX
  8
0
  6
CONTINUOUS
 62
     3
  5
3D1
 10
-145.405637
 20
-152.681443
 30
0.0
  0
VERTEX
  8
0
  6
CONTINUOUS
 62
     3
  5
3D2
 10
-146.363417
 20
-152.748294
 30
0.0
  0
VERTEX
  8
0
  6
CONTINUOUS
 62
     3
  5
3D3
 10
-147.320648
 20
-152.796131
 30
0.0
  0
VERTEX
  8
0
  6
CONTINUOUS
 62
     3
  5
3D4
 10
-148.276174
 20
-152.825401
 30
0.0
  0
VERTEX
  8
0
  6
CONTINUOUS
 62
     3
  5
3D5
 10
-149.228841
 20
-152.836552
 30
0.0
  0
VERTEX
  8
0
  6
CONTINUOUS
 62
     3
  5
3D6
 10
-150.177493
 20
-152.830031
 30
0.0
  0
VERTEX
  8
0
  6
CONTINUOUS
 62
     3
  5
3D7
 10
-151.120976
 20
-152.806285
 30
0.0
  0
VERTEX
  8
0
  6
CONTINUOUS
 62
     3
  5
3D8
 10
-152.058134
 20
-152.765762
 30
0.0
  0
VERTEX
  8
0
  6
CONTINUOUS
 62
     3
  5
3D9
 10
-152.987812
 20
-152.708908
 30
0.0
  0
VERTEX
  8
0
  6
CONTINUOUS
 62
     3
  5
3DA
 10
-153.908855
 20
-152.636171
 30
0.0
  0
VERTEX
  8
0
  6
CONTINUOUS
 62
     3
  5
3DB
 10
-154.820108
 20
-152.547998
 30
0.0
  0
SEQEND
  8
0
  6
CONTINUOUS
 62
     3
  5
3DC
  0
POLYLINE
  8
0
  6
CONTINUOUS
 62
     3
  5
222
 66
     1
 10
0.0
 20
0.0
 30
0.0
  0
VERTEX
  8
0
  6
CONTINUOUS
 62
     3
  5
3DD
 10
-115.47138
 20
-121.533242
 30
0.0
  0
VERTEX
  8
0
  6
CONTINUOUS
 62
     3
  5
3DE
 10
-115.472075
 20
-121.707129
 30
0.0
  0
VERTEX
  8
0
  6
CONTINUOUS
 62
     3
  5
3DF
 10
-115.473532
 20
-121.88106
 30
0.0
  0
VERTEX
  8
0
  6
CONTINUOUS
 62
     3
  5
3E0
 10
-115.475749
 20
-122.055041
 30
0.0
  0
VERTEX
  8
0
  6
CONTINUOUS
 62
     3
  5
3E1
 10
-115.478724
 20
-122.229077
 30
0.0
  0
VERTEX
  8
0
  6
CONTINUOUS
 62
     3
  5
3E2
 10
-115.482455
 20
-122.403173
 30
0.0
  0
VERTEX
  8
0
  6
CONTINUOUS
 62
     3
  5
3E3
 10
-115.48694
 20
-122.577333
 30
0.0
  0
VERTEX
  8
0
  6
CONTINUOUS
 62
     3
  5
3E4
 10
-115.492177
 20
-122.751564
 30
0.0
  0
VERTEX
  8
0
  6
CONTINUOUS
 62
     3
  5
3E5
 10
-115.498165
 20
-122.92587
 30
0.0
  0
VERTEX
  8
0
  6
CONTINUOUS
 62
     3
  5
3E6
 10
-115.504901
 20
-123.100257
 30
0.0
  0
VERTEX
  8
0
  6
CONTINUOUS
 62
     3
  5
3E7
 10
-115.512383
 20
-123.27473
 30
0.0
  0
VERTEX
  8
0
  6
CONTINUOUS
 62
     3
  5
3E8
 10
-115.52061
 20
-123.449294
 30
0.0
  0
VERTEX
  8
0
  6
CONTINUOUS
 62
     3
  5
3E9
 10
-115.529579
 20
-123.623954
 30
0.0
  0
VERTEX
  8
0
  6
CONTINUOUS
 62
     3
  5
3EA
 10
-115.539288
 20
-123.798715
 30
0.0
  0
VERTEX
  8
0
  6
CONTINUOUS
 62
     3
  5
3EB
 10
-115.549735
 20
-123.973584
 30
0.0
  0
VERTEX
  8
0
  6
CONTINUOUS
 62
     3
  5
3EC
 10
-115.560919
 20
-124.148565
 30
0.0
  0
VERTEX
  8
0
  6
CONTINUOUS
 62
     3
  5
3ED
 10
-115.572836
 20
-124.323663
 30
0.0
  0
VERTEX
  8
0
  6
CONTINUOUS
 62
     3
  5
3EE
 10
-115.633508
 20
-125.090135
 30
0.0
  0
VERTEX
  8
0
  6
CONTINUOUS
 62
     3
  5
3EF
 10
-115.708297
 20
-125.859151
 30
0.0
  0
VERTEX
  8
0
  6
CONTINUOUS
 62
     3
  5
3F0
 10
-115.797305
 20
-126.630092
 30
0.0
  0
VERTEX
  8
0
  6
CONTINUOUS
 62
     3
  5
3F1
 10
-115.900642
 20
-127.402339
 30
0.0
  0
VERTEX
  8
0
  6
CONTINUOUS
 62
     3
  5
3F2
 10
-116.018422
 20
-128.175269
 30
0.0
  0
VERTEX
  8
0
  6
CONTINUOUS
 62
     3
  5
3F3
 10
-116.150762
 20
-128.948257
 30
0.0
  0
VERTEX
  8
0
  6
CONTINUOUS
 62
     3
  5
3F4
 10
-116.297785
 20
-129.720677
 30
0.0
  0
VERTEX
  8
0
  6
CONTINUOUS
 62
     3
  5
3F5
 10
-116.459618
 20
-130.491901
 30
0.0
  0
VERTEX
  8
0
  6
CONTINUOUS
 62
     3
  5
3F6
 10
-116.636393
 20
-131.261297
 30
0.0
  0
VERTEX
  8
0
  6
CONTINUOUS
 62
     3
  5
3F7
 10
-116.828248
 20
-132.028233
 30
0.0
  0
VERTEX
  8
0
  6
CONTINUOUS
 62
     3
  5
3F8
 10
-117.035324
 20
-132.792073
 30
0.0
  0
VERTEX
  8
0
  6
CONTINUOUS
 62
     3
  5
3F9
 10
-117.257768
 20
-133.552178
 30
0.0
  0
VERTEX
  8
0
  6
CONTINUOUS
 62
     3
  5
3FA
 10
-117.495733
 20
-134.307909
 30
0.0
  0
VERTEX
  8
0
  6
CONTINUOUS
 62
     3
  5
3FB
 10
-117.749376
 20
-135.058619
 30
0.0
  0
VERTEX
  8
0
  6
CONTINUOUS
 62
     3
  5
3FC
 10
-118.01886
 20
-135.80366
 30
0.0
  0
VERTEX
  8
0
  6
CONTINUOUS
 62
     3
  5
3FD
 10
-118.304354
 20
-136.542379
 30
0.0
  0
VERTEX
  8
0
  6
CONTINUOUS
 62
     3
  5
3FE
 10
-118.606032
 20
-137.274117
 30
0.0
  0
VERTEX
  8
0
  6
CONTINUOUS
 62
     3
  5
3FF
 10
-118.924072
 20
-137.998211
 30
0.0
  0
VERTEX
  8
0
  6
CONTINUOUS
 62
     3
  5
400
 10
-119.258661
 20
-138.713988
 30
0.0
  0
VERTEX
  8
0
  6
CONTINUOUS
 62
     3
  5
401
 10
-119.609988
 20
-139.420771
 30
0.0
  0
VERTEX
  8
0
  6
CONTINUOUS
 62
     3
  5
402
 10
-119.978246
 20
-140.11787
 30
0.0
  0
VERTEX
  8
0
  6
CONTINUOUS
 62
     3
  5
403
 10
-120.363635
 20
-140.804588
 30
0.0
  0
VERTEX
  8
0
  6
CONTINUOUS
 62
     3
  5
404
 10
-120.766356
 20
-141.480216
 30
0.0
  0
VERTEX
  8
0
  6
CONTINUOUS
 62
     3
  5
405
 10
-121.186613
 20
-142.144032
 30
0.0
  0
VERTEX
  8
0
  6
CONTINUOUS
 62
     3
  5
406
 10
-121.62461
 20
-142.795299
 30
0.0
  0
VERTEX
  8
0
  6
CONTINUOUS
 62
     3
  5
407
 10
-122.080551
 20
-143.433267
 30
0.0
  0
VERTEX
  8
0
  6
CONTINUOUS
 62
     3
  5
408
 10
-122.554638
 20
-144.057168
 30
0.0
  0
VERTEX
  8
0
  6
CONTINUOUS
 62
     3
  5
409
 10
-123.047067
 20
-144.666217
 30
0.0
  0
VERTEX
  8
0
  6
CONTINUOUS
 62
     3
  5
40A
 10
-123.558025
 20
-145.259611
 30
0.0
  0
VERTEX
  8
0
  6
CONTINUOUS
 62
     3
  5
40B
 10
-124.087693
 20
-145.836527
 30
0.0
  0
VERTEX
  8
0
  6
CONTINUOUS
 62
     3
  5
40C
 10
-124.636233
 20
-146.396125
 30
0.0
  0
VERTEX
  8
0
  6
CONTINUOUS
 62
     3
  5
40D
 10
-125.203792
 20
-146.937544
 30
0.0
  0
VERTEX
  8
0
  6
CONTINUOUS
 62
     3
  5
40E
 10
-125.944242
 20
-147.591334
 30
0.0
  0
VERTEX
  8
0
  6
CONTINUOUS
 62
     3
  5
40F
 10
-126.709956
 20
-148.212053
 30
0.0
  0
VERTEX
  8
0
  6
CONTINUOUS
 62
     3
  5
410
 10
-127.499393
 20
-148.80023
 30
0.0
  0
VERTEX
  8
0
  6
CONTINUOUS
 62
     3
  5
411
 10
-128.311057
 20
-149.356443
 30
0.0
  0
VERTEX
  8
0
  6
CONTINUOUS
 62
     3
  5
412
 10
-129.143497
 20
-149.881306
 30
0.0
  0
VERTEX
  8
0
  6
CONTINUOUS
 62
     3
  5
413
 10
-129.99531
 20
-150.375461
 30
0.0
  0
VERTEX
  8
0
  6
CONTINUOUS
 62
     3
  5
414
 10
-130.865137
 20
-150.839566
 30
0.0
  0
VERTEX
  8
0
  6
CONTINUOUS
 62
     3
  5
415
 10
-131.751666
 20
-151.27429
 30
0.0
  0
VERTEX
  8
0
  6
CONTINUOUS
 62
     3
  5
416
 10
-132.65362
 20
-151.680304
 30
0.0
  0
VERTEX
  8
0
  6
CONTINUOUS
 62
     3
  5
417
 10
-133.569759
 20
-152.05828
 30
0.0
  0
VERTEX
  8
0
  6
CONTINUOUS
 62
     3
  5
418
 10
-134.498874
 20
-152.40888
 30
0.0
  0
VERTEX
  8
0
  6
CONTINUOUS
 62
     3
  5
419
 10
-135.439783
 20
-152.732759
 30
0.0
  0
VERTEX
  8
0
  6
CONTINUOUS
 62
     3
  5
41A
 10
-136.391325
 20
-153.030561
 30
0.0
  0
VERTEX
  8
0
  6
CONTINUOUS
 62
     3
  5
41B
 10
-137.352359
 20
-153.302917
 30
0.0
  0
VERTEX
  8
0
  6
CONTINUOUS
 62
     3
  5
41C
 10
-138.32176
 20
-153.550445
 30
0.0
  0
VERTEX
  8
0
  6
CONTINUOUS
 62
     3
  5
41D
 10
-139.298416
 20
-153.773749
 30
0.0
  0
VERTEX
  8
0
  6
CONTINUOUS
 62
     3
  5
41E
 10
-140.281222
 20
-153.97342
 30
0.0
  0
VERTEX
  8
0
  6
CONTINUOUS
 62
     3
  5
41F
 10
-141.269086
 20
-154.150035
 30
0.0
  0
VERTEX
  8
0
  6
CONTINUOUS
 62
     3
  5
420
 10
-142.260918
 20
-154.30416
 30
0.0
  0
VERTEX
  8
0
  6
CONTINUOUS
 62
     3
  5
421
 10
-143.255634
 20
-154.436348
 30
0.0
  0
VERTEX
  8
0
  6
CONTINUOUS
 62
     3
  5
422
 10
-144.252156
 20
-154.54714
 30
0.0
  0
VERTEX
  8
0
  6
CONTINUOUS
 62
     3
  5
423
 10
-145.249406
 20
-154.637067
 30
0.0
  0
VERTEX
  8
0
  6
CONTINUOUS
 62
     3
  5
424
 10
-146.24631
 20
-154.70665
 30
0.0
  0
VERTEX
  8
0
  6
CONTINUOUS
 62
     3
  5
425
 10
-147.241794
 20
-154.7564
 30
0.0
  0
VERTEX
  8
0
  6
CONTINUOUS
 62
     3
  5
426
 10
-148.234787
 20
-154.786819
 30
0.0
  0
VERTEX
  8
0
  6
CONTINUOUS
 62
     3
  5
427
 10
-149.224218
 20
-154.798401
 30
0.0
  0
VERTEX
  8
0
  6
CONTINUOUS
 62
     3
  5
428
 10
-150.209019
 20
-154.791632
 30
0.0
  0
VERTEX
  8
0
  6
CONTINUOUS
 62
     3
  5
429
 10
-151.188123
 20
-154.76699
 30
0.0
  0
VERTEX
  8
0
  6
CONTINUOUS
 62
     3
  5
42A
 10
-152.160464
 20
-154.724946
 30
0.0
  0
VERTEX
  8
0
  6
CONTINUOUS
 62
     3
  5
42B
 10
-153.124978
 20
-154.665962
 30
0.0
  0
VERTEX
  8
0
  6
CONTINUOUS
 62
     3
  5
42C
 10
-154.080604
 20
-154.590493
 30
0.0
  0
VERTEX
  8
0
  6
CONTINUOUS
 62
     3
  5
42D
 10
-155.026286
 20
-154.498988
 30
0.0
  0
SEQEND
  8
0
  6
CONTINUOUS
 62
     3
  5
42E
  0
POLYLINE
  8
0
  6
CONTINUOUS
 62
     3
  5
223
 66
     1
 10
0.0
 20
0.0
 30
0.0
  0
VERTEX
  8
0
  6
CONTINUOUS
 62
     3
  5
42F
 10
-119.395025
 20
-121.464704
 30
0.0
  0
VERTEX
  8
0
  6
CONTINUOUS
 62
     3
  5
430
 10
-119.395399
 20
-121.625192
 30
0.0
  0
VERTEX
  8
0
  6
CONTINUOUS
 62
     3
  5
431
 10
-119.396494
 20
-121.785779
 30
0.0
  0
VERTEX
  8
0
  6
CONTINUOUS
 62
     3
  5
432
 10
-119.398309
 20
-121.946473
 30
0.0
  0
VERTEX
  8
0
  6
CONTINUOUS
 62
     3
  5
433
 10
-119.400844
 20
-122.107284
 30
0.0
  0
VERTEX
  8
0
  6
CONTINUOUS
 62
     3
  5
434
 10
-119.404096
 20
-122.268219
 30
0.0
  0
VERTEX
  8
0
  6
CONTINUOUS
 62
     3
  5
435
 10
-119.408065
 20
-122.429288
 30
0.0
  0
VERTEX
  8
0
  6
CONTINUOUS
 62
     3
  5
436
 10
-119.412749
 20
-122.590498
 30
0.0
  0
VERTEX
  8
0
  6
CONTINUOUS
 62
     3
  5
437
 10
-119.418148
 20
-122.751859
 30
0.0
  0
VERTEX
  8
0
  6
CONTINUOUS
 62
     3
  5
438
 10
-119.424261
 20
-122.913379
 30
0.0
  0
VERTEX
  8
0
  6
CONTINUOUS
 62
     3
  5
439
 10
-119.431085
 20
-123.075066
 30
0.0
  0
VERTEX
  8
0
  6
CONTINUOUS
 62
     3
  5
43A
 10
-119.438621
 20
-123.236929
 30
0.0
  0
VERTEX
  8
0
  6
CONTINUOUS
 62
     3
  5
43B
 10
-119.446867
 20
-123.398977
 30
0.0
  0
VERTEX
  8
0
  6
CONTINUOUS
 62
     3
  5
43C
 10
-119.455822
 20
-123.561217
 30
0.0
  0
VERTEX
  8
0
  6
CONTINUOUS
 62
     3
  5
43D
 10
-119.465485
 20
-123.723657
 30
0.0
  0
VERTEX
  8
0
  6
CONTINUOUS
 62
     3
  5
43E
 10
-119.475855
 20
-123.886307
 30
0.0
  0
VERTEX
  8
0
  6
CONTINUOUS
 62
     3
  5
43F
 10
-119.486932
 20
-124.049175
 30
0.0
  0
VERTEX
  8
0
  6
CONTINUOUS
 62
     3
  5
440
 10
-119.542049
 20
-124.745457
 30
0.0
  0
VERTEX
  8
0
  6
CONTINUOUS
 62
     3
  5
441
 10
-119.610012
 20
-125.444292
 30
0.0
  0
VERTEX
  8
0
  6
CONTINUOUS
 62
     3
  5
442
 10
-119.690905
 20
-126.144945
 30
0.0
  0
VERTEX
  8
0
  6
CONTINUOUS
 62
     3
  5
443
 10
-119.784807
 20
-126.846681
 30
0.0
  0
VERTEX
  8
0
  6
CONTINUOUS
 62
     3
  5
444
 10
-119.891791
 20
-127.548767
 30
0.0
  0
VERTEX
  8
0
  6
CONTINUOUS
 62
     3
  5
445
 10
-120.011926
 20
-128.250474
 30
0.0
  0
VERTEX
  8
0
  6
CONTINUOUS
 62
     3
  5
446
 10
-120.145278
 20
-128.951074
 30
0.0
  0
VERTEX
  8
0
  6
CONTINUOUS
 62
     3
  5
447
 10
-120.291905
 20
-129.64984
 30
0.0
  0
VERTEX
  8
0
  6
CONTINUOUS
 62
     3
  5
448
 10
-120.451863
 20
-130.346048
 30
0.0
  0
VERTEX
  8
0
  6
CONTINUOUS
 62
     3
  5
449
 10
-120.625203
 20
-131.038977
 30
0.0
  0
VERTEX
  8
0
  6
CONTINUOUS
 62
     3
  5
44A
 10
-120.811969
 20
-131.727908
 30
0.0
  0
VERTEX
  8
0
  6
CONTINUOUS
 62
     3
  5
44B
 10
-121.012201
 20
-132.412123
 30
0.0
  0
VERTEX
  8
0
  6
CONTINUOUS
 62
     3
  5
44C
 10
-121.225935
 20
-133.090911
 30
0.0
  0
VERTEX
  8
0
  6
CONTINUOUS
 62
     3
  5
44D
 10
-121.4532
 20
-133.76356
 30
0.0
  0
VERTEX
  8
0
  6
CONTINUOUS
 62
     3
  5
44E
 10
-121.694021
 20
-134.429365
 30
0.0
  0
VERTEX
  8
0
  6
CONTINUOUS
 62
     3
  5
44F
 10
-121.948415
 20
-135.087625
 30
0.0
  0
VERTEX
  8
0
  6
CONTINUOUS
 62
     3
  5
450
 10
-122.216397
 20
-135.737643
 30
0.0
  0
VERTEX
  8
0
  6
CONTINUOUS
 62
     3
  5
451
 10
-122.497973
 20
-136.378728
 30
0.0
  0
VERTEX
  8
0
  6
CONTINUOUS
 62
     3
  5
452
 10
-122.793147
 20
-137.010198
 30
0.0
  0
VERTEX
  8
0
  6
CONTINUOUS
 62
     3
  5
453
 10
-123.101916
 20
-137.631377
 30
0.0
  0
VERTEX
  8
0
  6
CONTINUOUS
 62
     3
  5
454
 10
-123.424272
 20
-138.241598
 30
0.0
  0
VERTEX
  8
0
  6
CONTINUOUS
 62
     3
  5
455
 10
-123.760205
 20
-138.840204
 30
0.0
  0
VERTEX
  8
0
  6
CONTINUOUS
 62
     3
  5
456
 10
-124.109699
 20
-139.426549
 30
0.0
  0
VERTEX
  8
0
  6
CONTINUOUS
 62
     3
  5
457
 10
-124.47274
 20
-140.000003
 30
0.0
  0
VERTEX
  8
0
  6
CONTINUOUS
 62
     3
  5
458
 10
-124.849308
 20
-140.559944
 30
0.0
  0
VERTEX
  8
0
  6
CONTINUOUS
 62
     3
  5
459
 10
-125.239388
 20
-141.10577
 30
0.0
  0
VERTEX
  8
0
  6
CONTINUOUS
 62
     3
  5
45A
 10
-125.642966
 20
-141.636895
 30
0.0
  0
VERTEX
  8
0
  6
CONTINUOUS
 62
     3
  5
45B
 10
-126.060031
 20
-142.152747
 30
0.0
  0
VERTEX
  8
0
  6
CONTINUOUS
 62
     3
  5
45C
 10
-126.490584
 20
-142.652775
 30
0.0
  0
VERTEX
  8
0
  6
CONTINUOUS
 62
     3
  5
45D
 10
-126.934632
 20
-143.136449
 30
0.0
  0
VERTEX
  8
0
  6
CONTINUOUS
 62
     3
  5
45E
 10
-127.3922
 20
-143.603253
 30
0.0
  0
VERTEX
  8
0
  6
CONTINUOUS
 62
     3
  5
45F
 10
-127.863327
 20
-144.052693
 30
0.0
  0
VERTEX
  8
0
  6
CONTINUOUS
 62
     3
  5
460
 10
-128.478099
 20
-144.595494
 30
0.0
  0
VERTEX
  8
0
  6
CONTINUOUS
 62
     3
  5
461
 10
-129.117333
 20
-145.113662
 30
0.0
  0
VERTEX
  8
0
  6
CONTINUOUS
 62
     3
  5
462
 10
-129.780261
 20
-145.607561
 30
0.0
  0
VERTEX
  8
0
  6
CONTINUOUS
 62
     3
  5
463
 10
-130.46607
 20
-146.077509
 30
0.0
  0
VERTEX
  8
0
  6
CONTINUOUS
 62
     3
  5
464
 10
-131.173901
 20
-146.523785
 30
0.0
  0
VERTEX
  8
0
  6
CONTINUOUS
 62
     3
  5
465
 10
-131.902845
 20
-146.946642
 30
0.0
  0
VERTEX
  8
0
  6
CONTINUOUS
 62
     3
  5
466
 10
-132.651951
 20
-147.346317
 30
0.0
  0
VERTEX
  8
0
  6
CONTINUOUS
 62
     3
  5
467
 10
-133.420222
 20
-147.723035
 30
0.0
  0
VERTEX
  8
0
  6
CONTINUOUS
 62
     3
  5
468
 10
-134.206623
 20
-148.077018
 30
0.0
  0
VERTEX
  8
0
  6
CONTINUOUS
 62
     3
  5
469
 10
-135.010085
 20
-148.408492
 30
0.0
  0
VERTEX
  8
0
  6
CONTINUOUS
 62
     3
  5
46A
 10
-135.829506
 20
-148.717686
 30
0.0
  0
VERTEX
  8
0
  6
CONTINUOUS
 62
     3
  5
46B
 10
-136.663759
 20
-149.004841
 30
0.0
  0
VERTEX
  8
0
  6
CONTINUOUS
 62
     3
  5
46C
 10
-137.511693
 20
-149.270206
 30
0.0
  0
VERTEX
  8
0
  6
CONTINUOUS
 62
     3
  5
46D
 10
-138.37214
 20
-149.514046
 30
0.0
  0
VERTEX
  8
0
  6
CONTINUOUS
 62
     3
  5
46E
 10
-139.243913
 20
-149.736638
 30
0.0
  0
VERTEX
  8
0
  6
CONTINUOUS
 62
     3
  5
46F
 10
-140.125817
 20
-149.93827
 30
0.0
  0
VERTEX
  8
0
  6
CONTINUOUS
 62
     3
  5
470
 10
-141.016643
 20
-150.119247
 30
0.0
  0
VERTEX
  8
0
  6
CONTINUOUS
 62
     3
  5
471
 10
-141.915176
 20
-150.279885
 30
0.0
  0
VERTEX
  8
0
  6
CONTINUOUS
 62
     3
  5
472
 10
-142.820193
 20
-150.420515
 30
0.0
  0
VERTEX
  8
0
  6
CONTINUOUS
 62
     3
  5
473
 10
-143.730469
 20
-150.541477
 30
0.0
  0
VERTEX
  8
0
  6
CONTINUOUS
 62
     3
  5
474
 10
-144.644772
 20
-150.643124
 30
0.0
  0
VERTEX
  8
0
  6
CONTINUOUS
 62
     3
  5
475
 10
-145.561869
 20
-150.72582
 30
0.0
  0
VERTEX
  8
0
  6
CONTINUOUS
 62
     3
  5
476
 10
-146.480524
 20
-150.789938
 30
0.0
  0
VERTEX
  8
0
  6
CONTINUOUS
 62
     3
  5
477
 10
-147.399501
 20
-150.835862
 30
0.0
  0
VERTEX
  8
0
  6
CONTINUOUS
 62
     3
  5
478
 10
-148.317561
 20
-150.863983
 30
0.0
  0
VERTEX
  8
0
  6
CONTINUOUS
 62
     3
  5
479
 10
-149.233464
 20
-150.874703
 30
0.0
  0
VERTEX
  8
0
  6
CONTINUOUS
 62
     3
  5
47A
 10
-150.145967
 20
-150.86843
 30
0.0
  0
VERTEX
  8
0
  6
CONTINUOUS
 62
     3
  5
47B
 10
-151.053829
 20
-150.84558
 30
0.0
  0
VERTEX
  8
0
  6
CONTINUOUS
 62
     3
  5
47C
 10
-151.955804
 20
-150.806578
 30
0.0
  0
VERTEX
  8
0
  6
CONTINUOUS
 62
     3
  5
47D
 10
-152.850646
 20
-150.751855
 30
0.0
  0
VERTEX
  8
0
  6
CONTINUOUS
 62
     3
  5
47E
 10
-153.737106
 20
-150.681849
 30
0.0
  0
VERTEX
  8
0
  6
CONTINUOUS
 62
     3
  5
47F
 10
-154.61393
 20
-150.597008
 30
0.0
  0
SEQEND
  8
0
  6
CONTINUOUS
 62
     3
  5
480
  0
ARC
  8
0
  6
CONTINUOUS
 62
     3
  5
224
 10
-100.0
 20
-100.0
 30
0.0
 40
60.0
 50
238.422047
 51
233.965416
  0
ARC
  8
0
  6
CONTINUOUS
 62
     3
  5
225
 10
-117.494081
 20
-124.984137
 30
0.0
 40
4.0
 50
290.192792
 51
231.444188
  0
ARC
  8
0
  6
CONTINUOUS
 62
     3
  5
226
 10
-72.98455
 20
-61.417939
 30
0.0
 40
18.480799
 50
203.0
 51
267.0
  0
ARC
  8
0
  6
CONTINUOUS
 62
     3
  5
227
 10
-74.031269
 20
-81.390529
 30
0.0
 40
1.519201
 50
267.0
 51
87.0
  0
ARC
  8
0
  6
CONTINUOUS
 62
     3
  5
228
 10
-72.98455
 20
-61.417939
 30
0.0
 40
21.519201
 50
203.0
 51
267.0
  0
CIRCLE
  8
0
  6
CONTINUOUS
 62
     3
  5
229
 10
-74.727665
 20
-81.341833
 30
0.0
 40
0.85
  0
CIRCLE
  8
0
  6
CONTINUOUS
 62
     3
  5
22A
 10
-80.096898
 20
-71.575424
 30
0.0
 40
4.5
  0
CIRCLE
  8
0
  6
CONTINUOUS
 62
     3
  5
22B
 10
-78.160931
 20
-80.736455
 30
0.0
 40
0.85
  0
CIRCLE
  8
0
  6
CONTINUOUS
 62
     3
  5
22C
 10
-72.98455
 20
-61.417939
 30
0.0
 40
2.9
  0
CIRCLE
  8
0
  6
CONTINUOUS
 62
     3
  5
22D
 10
-72.98455
 20
-61.417939
 30
0.0
 40
1.75
  0
CIRCLE
  8
0
  6
CONTINUOUS
 62
     3
  5
22E
 10
-72.98455
 20
-61.417939
 30
0.0
 40
1.25
  0
CIRCLE
  8
0
  6
CONTINUOUS
 62
     3
  5
22F
 10
-91.110706
 20
-69.870304
 30
0.0
 40
0.85
  0
ARC
  8
0
  6
CONTINUOUS
 62
     3
  5
230
 10
-91.394647
 20
-69.232561
 30
0.0
 40
1.519201
 50
23.0
 51
203.0
  0
CIRCLE
  8
0
  6
CONTINUOUS
 62
     3
  5
231
 10
-84.456079
 20
-77.80098
 30
0.0
 40
0.85
  0
CIRCLE
  8
0
  6
CONTINUOUS
 62
     3
  5
232
 10
-89.367591
 20
-72.889467
 30
0.0
 40
0.85
  0
CIRCLE
  8
0
  6
CONTINUOUS
 62
     3
  5
233
 10
-87.126685
 20
-75.560074
 30
0.0
 40
0.85
  0
CIRCLE
  8
0
  6
CONTINUOUS
 62
     3
  5
234
 10
-81.436915
 20
-79.544094
 30
0.0
 40
0.85
  0
ARC
  8
0
  6
CONTINUOUS
 62
     3
  5
235
 10
-100.0
 20
-100.0
 30
0.0
 40
53.75
 50
151.066029
 51
208.933971
  0
ARC
  8
0
  6
CONTINUOUS
 62
     3
  5
236
 10
-100.0
 20
-100.0
 30
0.0
 40
53.75
 50
31.066029
 51
88.933971
  0
ARC
  8
0
  6
CONTINUOUS
 62
     3
  5
237
 10
-100.0
 20
-100.0
 30
0.0
 40
53.75
 50
331.066029
 51
28.933971
  0
ARC
  8
0
  6
CONTINUOUS
 62
     3
  5
238
 10
-100.0
 20
-100.0
 30
0.0
 40
53.75
 50
271.066029
 51
328.933971
  0
ARC
  8
0
  6
CONTINUOUS
 62
     3
  5
239
 10
-100.0
 20
-100.0
 30
0.0
 40
53.75
 50
211.066029
 51
237.139964
  0
ARC
  8
0
  6
CONTINUOUS
 62
     3
  5
23A
 10
-69.689111
 20
-117.5
 30
0.0
 40
7.75
 50
337.413674
 51
142.586326
  0
ARC
  8
0
  6
CONTINUOUS
 62
     3
  5
23B
 10
-100.0
 20
-65.0
 30
0.0
 40
7.543967
 50
82.382667
 51
97.617333
  0
ARC
  8
0
  6
CONTINUOUS
 62
     3
  5
23C
 10
-100.0
 20
-65.0
 30
0.0
 40
7.543967
 50
262.382667
 51
277.617333
  0
ARC
  8
0
  6
CONTINUOUS
 62
     3
  5
23D
 10
-69.689111
 20
-117.5
 30
0.0
 40
7.543967
 50
322.382667
 51
337.617333
  0
ARC
  8
0
  6
CONTINUOUS
 62
     3
  5
23E
 10
-69.689111
 20
-117.5
 30
0.0
 40
7.543967
 50
142.382667
 51
157.617333
  0
ARC
  8
0
  6
CONTINUOUS
 62
     3
  5
23F
 10
-130.310889
 20
-117.5
 30
0.0
 40
7.543967
 50
202.382667
 51
217.617333
  0
ARC
  8
0
  6
CONTINUOUS
 62
     3
  5
240
 10
-130.310889
 20
-117.5
 30
0.0
 40
7.75
 50
217.413674
 51
22.586326
  0
ARC
  8
0
  6
CONTINUOUS
 62
     3
  5
241
 10
-100.0
 20
-65.0
 30
0.0
 40
7.75
 50
277.413674
 51
82.586326
  0
ARC
  8
0
  6
CONTINUOUS
 62
     3
  5
242
 10
-130.310889
 20
-117.5
 30
0.0
 40
7.543967
 50
22.382667
 51
37.617333
  0
CIRCLE
  8
0
  6
CONTINUOUS
 62
     3
  5
243
 10
-69.689111
 20
-117.5
 30
0.0
 40
7.25
  0
ARC
  8
0
  6
CONTINUOUS
 62
     3
  5
244
 10
-69.689111
 20
-117.5
 30
0.0
 40
7.75
 50
157.413674
 51
322.586326
  0
CIRCLE
  8
0
  6
CONTINUOUS
 62
     3
  5
245
 10
-130.310889
 20
-117.5
 30
0.0
 40
7.25
  0
ARC
  8
0
  6
CONTINUOUS
 62
     3
  5
246
 10
-130.310889
 20
-117.5
 30
0.0
 40
7.75
 50
37.413674
 51
202.586326
  0
CIRCLE
  8
0
  6
CONTINUOUS
 62
     3
  5
247
 10
-100.0
 20
-65.0
 30
0.0
 40
7.25
  0
ARC
  8
0
  6
CONTINUOUS
 62
     3
  5
248
 10
-98.14312
 20
-147.618039
 30
0.0
 40
3.6
 50
256.230153
 51
103.769847
  0
ARC
  8
0
  6
CONTINUOUS
 62
     3
  5
249
 10
-103.634517
 20
-92.205753
 30
0.0
 40
35.333676
 50
283.463041
 51
306.536959
  0
ARC
  8
0
  6
CONTINUOUS
 62
     3
  5
24A
 10
-104.120288
 20
-147.095104
 30
0.0
 40
3.6
 50
29.917254
 51
141.44269
  0
ARC
  8
0
  6
CONTINUOUS
 62
     3
  5
24B
 10
-103.200795
 20
-136.58525
 30
0.0
 40
3.6
 50
208.55731
 51
307.685867
  0
ARC
  8
0
  6
CONTINUOUS
 62
     3
  5
24C
 10
-98.14312
 20
-147.618039
 30
0.0
 40
3.6
 50
208.55731
 51
217.478859
  0
ARC
  8
0
  6
CONTINUOUS
 62
     3
  5
24D
 10
-104.120288
 20
-147.095104
 30
0.0
 40
3.6
 50
208.55731
 51
321.44269
  0
ARC
  8
0
  6
CONTINUOUS
 62
     3
  5
24E
 10
-110.097456
 20
-146.57217
 30
0.0
 40
3.6
 50
28.55731
 51
321.44269
  0
ARC
  8
0
  6
CONTINUOUS
 62
     3
  5
24F
 10
-109.177963
 20
-136.062316
 30
0.0
 40
3.6
 50
28.55731
 51
321.44269
  0
ARC
  8
0
  6
CONTINUOUS
 62
     3
  5
250
 10
-103.200795
 20
-136.58525
 30
0.0
 40
3.6
 50
52.314133
 51
141.44269
  0
ARC
  8
0
  6
CONTINUOUS
 62
     3
  5
251
 10
-97.223626
 20
-137.108185
 30
0.0
 40
3.6
 50
240.433257
 51
119.566743
  0
ARC
  8
0
  6
CONTINUOUS
 62
     3
  5
252
 10
-98.14312
 20
-147.618039
 30
0.0
 40
4.0
 50
257.630223
 51
102.369777
  0
ARC
  8
0
  6
CONTINUOUS
 62
     3
  5
253
 10
-103.200795
 20
-136.58525
 30
0.0
 40
4.0
 50
56.619357
 51
133.590378
  0
ARC
  8
0
  6
CONTINUOUS
 62
     3
  5
254
 10
-104.120288
 20
-147.095104
 30
0.0
 40
4.0
 50
38.732838
 51
133.590378
  0
ARC
  8
0
  6
CONTINUOUS
 62
     3
  5
255
 10
-98.14312
 20
-147.618039
 30
0.0
 40
4.0
 50
216.409622
 51
224.420679
  0
ARC
  8
0
  6
CONTINUOUS
 62
     3
  5
256
 10
-104.120288
 20
-147.095104
 30
0.0
 40
4.0
 50
216.409622
 51
313.590378
  0
ARC
  8
0
  6
CONTINUOUS
 62
     3
  5
257
 10
-110.097456
 20
-146.57217
 30
0.0
 40
4.0
 50
36.409622
 51
313.590378
  0
ARC
  8
0
  6
CONTINUOUS
 62
     3
  5
258
 10
-109.177963
 20
-136.062316
 30
0.0
 40
4.0
 50
36.409622
 51
313.590378
  0
ARC
  8
0
  6
CONTINUOUS
 62
     3
  5
259
 10
-103.200795
 20
-136.58525
 30
0.0
 40
4.0
 50
216.409622
 51
303.380643
  0
ARC
  8
0
  6
CONTINUOUS
 62
     3
  5
25A
 10
-97.223626
 20
-137.108185
 30
0.0
 40
4.0
 50
243.634652
 51
116.365348
  0
LINE
  8
0
  6
CONTINUOUS
 62
     3
  5
25B
 10
-108.569826
 20
-149.190274
 30
0.0
 11
-112.056507
 21
-148.885229
 31
0.0
  0
LINE
  8
0
  6
CONTINUOUS
 62
     3
  5
25C
 10
-102.592657
 20
-149.713209
 30
0.0
 11
-106.079339
 21
-149.408164
 31
0.0
  0
LINE
  8
0
  6
CONTINUOUS
 62
     3
  5
25D
 10
-102.156879
 20
-144.732235
 30
0.0
 11
-105.64356
 21
-144.42719
 31
0.0
  0
LINE
  8
0
  6
CONTINUOUS
 62
     3
  5
25E
 10
-108.134047
 20
-144.209301
 30
0.0
 11
-111.620728
 21
-143.904256
 31
0.0
  0
LINE
  8
0
  6
CONTINUOUS
 62
     3
  5
25F
 10
-101.241743
 20
-134.272191
 30
0.0
 11
-104.728425
 21
-133.967146
 31
0.0
  0
LINE
  8
0
  6
CONTINUOUS
 62
     3
  5
260
 10
-107.218912
 20
-133.749257
 30
0.0
 11
-110.705593
 21
-133.444211
 31
0.0
  0
LINE
  8
0
  6
CONTINUOUS
 62
     3
  5
261
 10
-107.65469
 20
-138.73023
 30
0.0
 11
-111.141372
 21
-138.425185
 31
0.0
  0
LINE
  8
0
  6
CONTINUOUS
 62
     3
  5
262
 10
-101.677522
 20
-139.253164
 30
0.0
 11
-105.164204
 21
-138.948119
 31
0.0
  0
LINE
  8
0
  6
CONTINUOUS
 62
     3
  5
263
 10
-95.264575
 20
-134.795125
 30
0.0
 11
-98.751257
 21
-134.49008
 31
0.0
  0
LINE
  8
0
  6
CONTINUOUS
 62
     3
  5
264
 10
-96.615489
 20
-150.236143
 30
0.0
 11
-100.102171
 21
-149.931098
 31
0.0
  0
LINE
  8
0
  6
CONTINUOUS
 62
     3
  5
265
 10
-95.700354
 20
-139.776099
 30
0.0
 11
-99.187035
 21
-139.471054
 31
0.0
  0
LINE
  8
0
  6
CONTINUOUS
 62
     3
  5
266
 10
-96.179711
 20
-145.25517
 30
0.0
 11
-99.666392
 21
-144.950125
 31
0.0
  0
ARC
  8
0
  6
CONTINUOUS
 62
     3
  5
267
 10
-100.0
 20
-100.0
 30
0.0
 40
52.15
 50
271.09874
 51
328.90126
  0
LINE
  8
0
  6
CONTINUOUS
 62
     3
  5
268
 10
-99.0
 20
-151.114574
 30
0.0
 11
-99.0
 21
-153.740697
 31
0.0
  0
LINE
  8
0
  6
CONTINUOUS
 62
     3
  5
269
 10
-101.0
 20
-149.808526
 30
0.0
 11
-101.0
 21
-153.740697
 31
0.0
  0
LINE
  8
0
  6
CONTINUOUS
 62
     3
  5
26A
 10
-101.0
 20
-139.434198
 30
0.0
 11
-101.0
 21
-145.299609
 31
0.0
  0
LINE
  8
0
  6
CONTINUOUS
 62
     3
  5
26B
 10
-99.0
 20
-140.239398
 30
0.0
 11
-99.0
 21
-144.121504
 31
0.0
  0
LINE
  8
0
  6
CONTINUOUS
 62
     3
  5
26C
 10
-97.312826
 20
-150.175134
 30
0.0
 11
-97.203881
 21
-148.929891
 31
0.0
  0
LINE
  8
0
  6
CONTINUOUS
 62
     3
  5
26D
 10
-99.666392
 20
-144.950125
 30
0.0
 11
-100.102171
 21
-149.931098
 31
0.0
  0
LINE
  8
0
  6
CONTINUOUS
 62
     3
  5
26E
 10
-99.404834
 20
-149.992107
 30
0.0
 11
-99.29589
 21
-148.746864
 31
0.0
  0
LINE
  8
0
  6
CONTINUOUS
 62
     3
  5
26F
 10
-96.179711
 20
-145.25517
 30
0.0
 11
-96.615489
 21
-150.236143
 31
0.0
  0
LINE
  8
0
  6
CONTINUOUS
 62
     3
  5
270
 10
-103.289994
 20
-149.6522
 30
0.0
 11
-103.181049
 21
-148.406956
 31
0.0
  0
LINE
  8
0
  6
CONTINUOUS
 62
     3
  5
271
 10
-105.64356
 20
-144.42719
 30
0.0
 11
-106.081518
 21
-149.433069
 31
0.0
  0
LINE
  8
0
  6
CONTINUOUS
 62
     3
  5
272
 10
-105.382003
 20
-149.469173
 30
0.0
 11
-105.273058
 21
-148.223929
 31
0.0
  0
LINE
  8
0
  6
CONTINUOUS
 62
     3
  5
273
 10
-102.156879
 20
-144.732235
 30
0.0
 11
-102.592657
 21
-149.713209
 31
0.0
  0
LINE
  8
0
  6
CONTINUOUS
 62
     3
  5
274
 10
-109.267162
 20
-149.129265
 30
0.0
 11
-109.158217
 21
-147.884022
 31
0.0
  0
LINE
  8
0
  6
CONTINUOUS
 62
     3
  5
275
 10
-111.620728
 20
-143.904256
 30
0.0
 11
-112.056507
 21
-148.885229
 31
0.0
  0
LINE
  8
0
  6
CONTINUOUS
 62
     3
  5
276
 10
-111.359171
 20
-148.946238
 30
0.0
 11
-111.250226
 21
-147.700995
 31
0.0
  0
LINE
  8
0
  6
CONTINUOUS
 62
     3
  5
277
 10
-108.134047
 20
-144.209301
 30
0.0
 11
-108.569826
 21
-149.190274
 31
0.0
  0
LINE
  8
0
  6
CONTINUOUS
 62
     3
  5
278
 10
-110.008257
 20
-133.50522
 30
0.0
 11
-110.117201
 21
-134.750464
 31
0.0
  0
LINE
  8
0
  6
CONTINUOUS
 62
     3
  5
279
 10
-107.652511
 20
-138.705325
 30
0.0
 11
-107.216733
 21
-133.724352
 31
0.0
  0
LINE
  8
0
  6
CONTINUOUS
 62
     3
  5
27A
 10
-107.916248
 20
-133.688247
 30
0.0
 11
-108.025193
 21
-134.933491
 31
0.0
  0
LINE
  8
0
  6
CONTINUOUS
 62
     3
  5
27B
 10
-111.139193
 20
-138.40028
 30
0.0
 11
-110.703414
 21
-133.419307
 31
0.0
  0
LINE
  8
0
  6
CONTINUOUS
 62
     3
  5
27C
 10
-104.031089
 20
-134.028155
 30
0.0
 11
-104.140033
 21
-135.273398
 31
0.0
  0
LINE
  8
0
  6
CONTINUOUS
 62
     3
  5
27D
 10
-101.675343
 20
-139.22826
 30
0.0
 11
-101.239565
 21
-134.247286
 31
0.0
  0
LINE
  8
0
  6
CONTINUOUS
 62
     3
  5
27E
 10
-101.93908
 20
-134.211182
 30
0.0
 11
-102.048024
 21
-135.456425
 31
0.0
  0
LINE
  8
0
  6
CONTINUOUS
 62
     3
  5
27F
 10
-105.162025
 20
-138.923214
 30
0.0
 11
-104.726246
 21
-133.942241
 31
0.0
  0
LINE
  8
0
  6
CONTINUOUS
 62
     3
  5
280
 10
-99.184857
 20
-139.446149
 30
0.0
 11
-98.749078
 21
-134.465175
 31
0.0
  0
LINE
  8
0
  6
CONTINUOUS
 62
     3
  5
281
 10
-95.700354
 20
-139.776099
 30
0.0
 11
-95.264575
 21
-134.795125
 31
0.0
  0
ARC
  8
0
  6
CONTINUOUS
 62
     3
  5
282
 10
-100.0
 20
-100.0
 30
0.0
 40
52.15
 50
211.09874
 51
237.67923
  0
LINE
  8
0
  6
CONTINUOUS
 62
     3
  5
283
 10
-98.05392
 20
-134.551089
 30
0.0
 11
-98.162865
 21
-135.796333
 31
0.0
  0
LINE
  8
0
  6
CONTINUOUS
 62
     3
  5
284
 10
-95.961912
 20
-134.734116
 30
0.0
 11
-96.070856
 21
-135.97936
 31
0.0
  0
ARC
  8
0
  6
CONTINUOUS
 62
     3
  5
285
 10
-100.0
 20
-100.0
 30
0.0
 40
53.75
 50
91.066029
 51
148.933971
  0
CIRCLE
  8
0
  6
CONTINUOUS
 62
     3
  5
286
 10
-56.167433
 20
-103.834853
 30
0.0
 40
2.25
  0
CIRCLE
  8
0
  6
CONTINUOUS
 62
     3
  5
287
 10
-125.237363
 20
-136.04269
 30
0.0
 40
2.25
  0
ARC
  8
0
  6
CONTINUOUS
 62
     3
  5
288
 10
-103.634517
 20
-92.205753
 30
0.0
 40
37.733676
 50
283.463041
 51
306.536959
  0
CIRCLE
  8
0
  6
CONTINUOUS
 62
     3
  5
289
 10
-118.595204
 20
-60.122457
 30
0.0
 40
2.25
  0
LINE
  8
0
  6
CONTINUOUS
 62
     3
  5
28A
 10
-94.849435
 20
-128.902519
 30
0.0
 11
-95.408198
 21
-126.56847
 31
0.0
  0
LINE
  8
0
  6
CONTINUOUS
 62
     3
  5
28B
 10
-81.170105
 20
-122.523743
 30
0.0
 11
-82.598924
 21
-120.595407
 31
0.0
  0
LINE
  8
0
  6
CONTINUOUS
 62
     3
  5
28C
 10
-96.070856
 20
-135.97936
 30
0.0
 11
-98.162865
 21
-135.796333
 31
0.0
  0
LINE
  8
0
  6
CONTINUOUS
 62
     3
  5
28D
 10
-97.203881
 20
-148.929891
 30
0.0
 11
-99.29589
 21
-148.746864
 31
0.0
  0
LINE
  8
0
  6
CONTINUOUS
 62
     3
  5
28E
 10
-111.250226
 20
-147.700995
 30
0.0
 11
-109.158217
 21
-147.884022
 31
0.0
  0
LINE
  8
0
  6
CONTINUOUS
 62
     3
  5
28F
 10
-110.117201
 20
-134.750464
 30
0.0
 11
-108.025193
 21
-134.933491
 31
0.0
  0
LINE
  8
0
  6
CONTINUOUS
 62
     3
  5
290
 10
-104.140033
 20
-135.273398
 30
0.0
 11
-102.048024
 21
-135.456425
 31
0.0
  0
LINE
  8
0
  6
CONTINUOUS
 62
     3
  5
291
 10
-105.273058
 20
-148.223929
 30
0.0
 11
-103.181049
 21
-148.406956
 31
0.0
  0
CIRCLE
  8
0
  6
CONTINUOUS
 62
     3
  5
292
 10
-113.354737
 20
-71.360674
 30
0.0
 40
4.0
  0
LINE
  8
0
  6
CONTINUOUS
 62
     3
  5
293
 10
-101.0
 20
-113.96424
 30
0.0
 11
-101.0
 21
-133.736303
 31
0.0
  0
LINE
  8
0
  6
CONTINUOUS
 62
     3
  5
294
 10
-99.0
 20
-113.96424
 30
0.0
 11
-99.0
 21
-133.976971
 31
0.0
  0
LINE
  8
0
  6
CONTINUOUS
 62
     3
  5
295
 10
-112.593387
 20
-93.883905
 30
0.0
 11
-147.040809
 21
-73.995677
 31
0.0
  0
LINE
  8
0
  6
CONTINUOUS
 62
     3
  5
296
 10
-111.593387
 20
-92.151855
 30
0.0
 11
-146.040809
 21
-72.263626
 31
0.0
  0
LINE
  8
0
  6
CONTINUOUS
 62
     3
  5
297
 10
-88.406613
 20
-92.151855
 30
0.0
 11
-53.959191
 21
-72.263626
 31
0.0
  0
LINE
  8
0
  6
CONTINUOUS
 62
     3
  5
298
 10
-87.406613
 20
-93.883905
 30
0.0
 11
-52.959191
 21
-73.995677
 31
0.0
  0
LINE
  8
0
  6
CONTINUOUS
 62
     3
  5
299
 10
-101.0
 20
-86.03576
 30
0.0
 11
-101.0
 21
-72.477395
 31
0.0
  0
LINE
  8
0
  6
CONTINUOUS
 62
     3
  5
29A
 10
-99.0
 20
-86.03576
 30
0.0
 11
-99.0
 21
-72.477395
 31
0.0
  0
LINE
  8
0
  6
CONTINUOUS
 62
     3
  5
29B
 10
-87.406613
 20
-106.116095
 30
0.0
 11
-75.664725
 21
-112.895277
 31
0.0
  0
LINE
  8
0
  6
CONTINUOUS
 62
     3
  5
29C
 10
-88.406613
 20
-107.848145
 30
0.0
 11
-76.664725
 21
-114.627328
 31
0.0
  0
LINE
  8
0
  6
CONTINUOUS
 62
     3
  5
29D
 10
-112.593387
 20
-106.116095
 30
0.0
 11
-124.335275
 21
-112.895277
 31
0.0
  0
LINE
  8
0
  6
CONTINUOUS
 62
     3
  5
29E
 10
-111.593387
 20
-107.848145
 30
0.0
 11
-123.335275
 21
-114.627328
 31
0.0
  0
ARC
  8
0
  6
CONTINUOUS
 62
     3
  5
29F
 10
-100.0
 20
-100.0
 30
0.0
 40
14.0
 50
214.096044
 51
325.903956
  0
CIRCLE
  8
0
  6
CONTINUOUS
 62
     3
  5
2A0
 10
-100.0
 20
-100.0
 30
0.0
 40
12.0
  0
ARC
  8
0
  6
CONTINUOUS
 62
     3
  5
2A1
 10
-100.0
 20
-100.0
 30
0.0
 40
14.0
 50
94.096044
 51
145.903956
  0
ARC
  8
0
  6
CONTINUOUS
 62
     3
  5
2A2
 10
-100.0
 20
-100.0
 30
0.0
 40
14.0
 50
334.096044
 51
25.903956
  0
ARC
  8
0
  6
CONTINUOUS
 62
     3
  5
2A3
 10
-100.0
 20
-100.0
 30
0.0
 40
14.0
 50
34.096044
 51
85.903956
  0
ARC
  8
0
  6
CONTINUOUS
 62
     3
  5
2A4
 10
-100.0
 20
-100.0
 30
0.0
 40
14.0
 50
154.096044
 51
205.903956
  0
ARC
  8
0
  6
CONTINUOUS
 62
     3
  5
2A5
 10
-100.0
 20
-100.0
 30
0.0
 40
52.15
 50
31.09874
 51
88.90126
  0
ARC
  8
0
  6
CONTINUOUS
 62
     3
  5
2A6
 10
-100.0
 20
-65.0
 30
0.0
 40
7.75
 50
97.413674
 51
262.586326
  0
LINE
  8
0
  6
CONTINUOUS
 62
     3
  5
2A7
 10
-99.0
 20
-57.522605
 30
0.0
 11
-99.0
 21
-46.259303
 31
0.0
  0
LINE
  8
0
  6
CONTINUOUS
 62
     3
  5
2A8
 10
-101.0
 20
-57.522605
 30
0.0
 11
-101.0
 21
-46.259303
 31
0.0
  0
ARC
  8
0
  6
CONTINUOUS
 62
     3
  5
2A9
 10
-100.0
 20
-100.0
 30
0.0
 40
52.15
 50
91.09874
 51
148.90126
  0
ARC
  8
0
  6
CONTINUOUS
 62
     3
  5
2AA
 10
-100.0
 20
-100.0
 30
0.0
 40
52.15
 50
151.09874
 51
208.90126
  0
LINE
  8
0
  6
CONTINUOUS
 62
     3
  5
2AB
 10
-137.286503
 20
-120.372672
 30
0.0
 11
-147.040809
 21
-126.004323
 31
0.0
  0
LINE
  8
0
  6
CONTINUOUS
 62
     3
  5
2AC
 10
-136.286503
 20
-122.104723
 30
0.0
 11
-146.040809
 21
-127.736374
 31
0.0
  0
LINE
  8
0
  6
CONTINUOUS
 62
     3
  5
2AD
 10
-63.713497
 20
-122.104723
 30
0.0
 11
-53.959191
 21
-127.736374
 31
0.0
  0
LINE
  8
0
  6
CONTINUOUS
 62
     3
  5
2AE
 10
-62.713497
 20
-120.372672
 30
0.0
 11
-52.959191
 21
-126.004323
 31
0.0
  0
ARC
  8
0
  6
CONTINUOUS
 62
     3
  5
2AF
 10
-100.0
 20
-100.0
 30
0.0
 40
52.15
 50
331.09874
 51
28.90126
  0
ARC
  8
0
  6
CONTINUOUS
 62
     3
  5
2B0
 10
-100.0
 20
-100.0
 30
0.0
 40
53.75
 50
241.584874
 51
268.933971
  0
ARC
  8
0
  6
CONTINUOUS
 62
     3
  5
2B1
 10
-100.0
 20
-100.0
 30
0.0
 40
52.15
 50
242.159356
 51
268.90126
  0
POLYLINE
  8
0
  6
CONTINUOUS
 62
     3
  5
2B2
 66
     1
 10
0.0
 20
0.0
 30
0.0
  0
VERTEX
  8
0
  6
CONTINUOUS
 62
     3
  5
481
 10
82.563789
 20
-120.984556
 30
0.0
  0
VERTEX
  8
0
  6
CONTINUOUS
 62
     3
  5
482
 10
82.565798
 20
-121.183718
 30
0.0
  0
VERTEX
  8
0
  6
CONTINUOUS
 62
     3
  5
483
 10
82.566747
 20
-121.382953
 30
0.0
  0
VERTEX
  8
0
  6
CONTINUOUS
 62
     3
  5
484
 10
82.566637
 20
-121.582273
 30
0.0
  0
VERTEX
  8
0
  6
CONTINUOUS
 62
     3
  5
485
 10
82.565472
 20
-121.78169
 30
0.0
  0
VERTEX
  8
0
  6
CONTINUOUS
 62
     3
  5
486
 10
82.563254
 20
-121.981215
 30
0.0
  0
VERTEX
  8
0
  6
CONTINUOUS
 62
     3
  5
487
 10
82.559985
 20
-122.18086
 30
0.0
  0
VERTEX
  8
0
  6
CONTINUOUS
 62
     3
  5
488
 10
82.555669
 20
-122.380636
 30
0.0
  0
VERTEX
  8
0
  6
CONTINUOUS
 62
     3
  5
489
 10
82.550308
 20
-122.580555
 30
0.0
  0
VERTEX
  8
0
  6
CONTINUOUS
 62
     3
  5
48A
 10
82.543905
 20
-122.780628
 30
0.0
  0
VERTEX
  8
0
  6
CONTINUOUS
 62
     3
  5
48B
 10
82.536462
 20
-122.980866
 30
0.0
  0
VERTEX
  8
0
  6
CONTINUOUS
 62
     3
  5
48C
 10
82.527982
 20
-123.181282
 30
0.0
  0
VERTEX
  8
0
  6
CONTINUOUS
 62
     3
  5
48D
 10
82.518467
 20
-123.381886
 30
0.0
  0
VERTEX
  8
0
  6
CONTINUOUS
 62
     3
  5
48E
 10
82.507921
 20
-123.58269
 30
0.0
  0
VERTEX
  8
0
  6
CONTINUOUS
 62
     3
  5
48F
 10
82.496345
 20
-123.783706
 30
0.0
  0
VERTEX
  8
0
  6
CONTINUOUS
 62
     3
  5
490
 10
82.483742
 20
-123.984945
 30
0.0
  0
VERTEX
  8
0
  6
CONTINUOUS
 62
     3
  5
491
 10
82.470116
 20
-124.186419
 30
0.0
  0
VERTEX
  8
0
  6
CONTINUOUS
 62
     3
  5
492
 10
82.412222
 20
-124.917796
 30
0.0
  0
VERTEX
  8
0
  6
CONTINUOUS
 62
     3
  5
493
 10
82.340846
 20
-125.651721
 30
0.0
  0
VERTEX
  8
0
  6
CONTINUOUS
 62
     3
  5
494
 10
82.255895
 20
-126.387519
 30
0.0
  0
VERTEX
  8
0
  6
CONTINUOUS
 62
     3
  5
495
 10
82.157275
 20
-127.12451
 30
0.0
  0
VERTEX
  8
0
  6
CONTINUOUS
 62
     3
  5
496
 10
82.044893
 20
-127.862018
 30
0.0
  0
VERTEX
  8
0
  6
CONTINUOUS
 62
     3
  5
497
 10
81.918656
 20
-128.599366
 30
0.0
  0
VERTEX
  8
0
  6
CONTINUOUS
 62
     3
  5
498
 10
81.778469
 20
-129.335876
 30
0.0
  0
VERTEX
  8
0
  6
CONTINUOUS
 62
     3
  5
499
 10
81.624239
 20
-130.07087
 30
0.0
  0
VERTEX
  8
0
  6
CONTINUOUS
 62
     3
  5
49A
 10
81.455872
 20
-130.803673
 30
0.0
  0
VERTEX
  8
0
  6
CONTINUOUS
 62
     3
  5
49B
 10
81.273275
 20
-131.533605
 30
0.0
  0
VERTEX
  8
0
  6
CONTINUOUS
 62
     3
  5
49C
 10
81.076354
 20
-132.25999
 30
0.0
  0
VERTEX
  8
0
  6
CONTINUOUS
 62
     3
  5
49D
 10
80.865015
 20
-132.982151
 30
0.0
  0
VERTEX
  8
0
  6
CONTINUOUS
 62
     3
  5
49E
 10
80.639166
 20
-133.69941
 30
0.0
  0
VERTEX
  8
0
  6
CONTINUOUS
 62
     3
  5
49F
 10
80.398712
 20
-134.411089
 30
0.0
  0
VERTEX
  8
0
  6
CONTINUOUS
 62
     3
  5
4A0
 10
80.14356
 20
-135.116513
 30
0.0
  0
VERTEX
  8
0
  6
CONTINUOUS
 62
     3
  5
4A1
 10
79.873615
 20
-135.815002
 30
0.0
  0
VERTEX
  8
0
  6
CONTINUOUS
 62
     3
  5
4A2
 10
79.588786
 20
-136.50588
 30
0.0
  0
VERTEX
  8
0
  6
CONTINUOUS
 62
     3
  5
4A3
 10
79.288977
 20
-137.18847
 30
0.0
  0
VERTEX
  8
0
  6
CONTINUOUS
 62
     3
  5
4A4
 10
78.974096
 20
-137.862093
 30
0.0
  0
VERTEX
  8
0
  6
CONTINUOUS
 62
     3
  5
4A5
 10
78.644048
 20
-138.526074
 30
0.0
  0
VERTEX
  8
0
  6
CONTINUOUS
 62
     3
  5
4A6
 10
78.298741
 20
-139.179734
 30
0.0
  0
VERTEX
  8
0
  6
CONTINUOUS
 62
     3
  5
4A7
 10
77.93808
 20
-139.822396
 30
0.0
  0
VERTEX
  8
0
  6
CONTINUOUS
 62
     3
  5
4A8
 10
77.561972
 20
-140.453383
 30
0.0
  0
VERTEX
  8
0
  6
CONTINUOUS
 62
     3
  5
4A9
 10
77.170324
 20
-141.072017
 30
0.0
  0
VERTEX
  8
0
  6
CONTINUOUS
 62
     3
  5
4AA
 10
76.763041
 20
-141.677621
 30
0.0
  0
VERTEX
  8
0
  6
CONTINUOUS
 62
     3
  5
4AB
 10
76.34003
 20
-142.269519
 30
0.0
  0
VERTEX
  8
0
  6
CONTINUOUS
 62
     3
  5
4AC
 10
75.901198
 20
-142.847031
 30
0.0
  0
VERTEX
  8
0
  6
CONTINUOUS
 62
     3
  5
4AD
 10
75.446451
 20
-143.409482
 30
0.0
  0
VERTEX
  8
0
  6
CONTINUOUS
 62
     3
  5
4AE
 10
74.975695
 20
-143.956193
 30
0.0
  0
VERTEX
  8
0
  6
CONTINUOUS
 62
     3
  5
4AF
 10
74.488837
 20
-144.486488
 30
0.0
  0
VERTEX
  8
0
  6
CONTINUOUS
 62
     3
  5
4B0
 10
73.985783
 20
-144.999689
 30
0.0
  0
VERTEX
  8
0
  6
CONTINUOUS
 62
     3
  5
4B1
 10
73.46644
 20
-145.495119
 30
0.0
  0
VERTEX
  8
0
  6
CONTINUOUS
 62
     3
  5
4B2
 10
72.78883
 20
-146.093414
 30
0.0
  0
VERTEX
  8
0
  6
CONTINUOUS
 62
     3
  5
4B3
 10
72.086356
 20
-146.662857
 30
0.0
  0
VERTEX
  8
0
  6
CONTINUOUS
 62
     3
  5
4B4
 10
71.360173
 20
-147.203895
 30
0.0
  0
VERTEX
  8
0
  6
CONTINUOUS
 62
     3
  5
4B5
 10
70.611436
 20
-147.716976
 30
0.0
  0
VERTEX
  8
0
  6
CONTINUOUS
 62
     3
  5
4B6
 10
69.841301
 20
-148.202545
 30
0.0
  0
VERTEX
  8
0
  6
CONTINUOUS
 62
     3
  5
4B7
 10
69.050923
 20
-148.661052
 30
0.0
  0
VERTEX
  8
0
  6
CONTINUOUS
 62
     3
  5
4B8
 10
68.241456
 20
-149.092941
 30
0.0
  0
VERTEX
  8
0
  6
CONTINUOUS
 62
     3
  5
4B9
 10
67.414056
 20
-149.498662
 30
0.0
  0
VERTEX
  8
0
  6
CONTINUOUS
 62
     3
  5
4BA
 10
66.569879
 20
-149.878661
 30
0.0
  0
VERTEX
  8
0
  6
CONTINUOUS
 62
     3
  5
4BB
 10
65.710078
 20
-150.233386
 30
0.0
  0
VERTEX
  8
0
  6
CONTINUOUS
 62
     3
  5
4BC
 10
64.83581
 20
-150.563283
 30
0.0
  0
VERTEX
  8
0
  6
CONTINUOUS
 62
     3
  5
4BD
 10
63.948229
 20
-150.8688
 30
0.0
  0
VERTEX
  8
0
  6
CONTINUOUS
 62
     3
  5
4BE
 10
63.048491
 20
-151.150384
 30
0.0
  0
VERTEX
  8
0
  6
CONTINUOUS
 62
     3
  5
4BF
 10
62.137751
 20
-151.408482
 30
0.0
  0
VERTEX
  8
0
  6
CONTINUOUS
 62
     3
  5
4C0
 10
61.217163
 20
-151.643541
 30
0.0
  0
VERTEX
  8
0
  6
CONTINUOUS
 62
     3
  5
4C1
 10
60.287884
 20
-151.856009
 30
0.0
  0
VERTEX
  8
0
  6
CONTINUOUS
 62
     3
  5
4C2
 10
59.351067
 20
-152.046333
 30
0.0
  0
VERTEX
  8
0
  6
CONTINUOUS
 62
     3
  5
4C3
 10
58.407869
 20
-152.21496
 30
0.0
  0
VERTEX
  8
0
  6
CONTINUOUS
 62
     3
  5
4C4
 10
57.459445
 20
-152.362338
 30
0.0
  0
VERTEX
  8
0
  6
CONTINUOUS
 62
     3
  5
4C5
 10
56.506949
 20
-152.488912
 30
0.0
  0
VERTEX
  8
0
  6
CONTINUOUS
 62
     3
  5
4C6
 10
55.551536
 20
-152.595132
 30
0.0
  0
VERTEX
  8
0
  6
CONTINUOUS
 62
     3
  5
4C7
 10
54.594363
 20
-152.681443
 30
0.0
  0
VERTEX
  8
0
  6
CONTINUOUS
 62
     3
  5
4C8
 10
53.636583
 20
-152.748294
 30
0.0
  0
VERTEX
  8
0
  6
CONTINUOUS
 62
     3
  5
4C9
 10
52.679352
 20
-152.796131
 30
0.0
  0
VERTEX
  8
0
  6
CONTINUOUS
 62
     3
  5
4CA
 10
51.723826
 20
-152.825401
 30
0.0
  0
VERTEX
  8
0
  6
CONTINUOUS
 62
     3
  5
4CB
 10
50.771159
 20
-152.836552
 30
0.0
  0
VERTEX
  8
0
  6
CONTINUOUS
 62
     3
  5
4CC
 10
49.822507
 20
-152.830031
 30
0.0
  0
VERTEX
  8
0
  6
CONTINUOUS
 62
     3
  5
4CD
 10
48.879024
 20
-152.806285
 30
0.0
  0
VERTEX
  8
0
  6
CONTINUOUS
 62
     3
  5
4CE
 10
47.941866
 20
-152.765762
 30
0.0
  0
VERTEX
  8
0
  6
CONTINUOUS
 62
     3
  5
4CF
 10
47.012188
 20
-152.708908
 30
0.0
  0
VERTEX
  8
0
  6
CONTINUOUS
 62
     3
  5
4D0
 10
46.091145
 20
-152.636171
 30
0.0
  0
VERTEX
  8
0
  6
CONTINUOUS
 62
     3
  5
4D1
 10
45.179892
 20
-152.547998
 30
0.0
  0
SEQEND
  8
0
  6
CONTINUOUS
 62
     3
  5
4D2
  0
POLYLINE
  8
0
  6
CONTINUOUS
 62
     3
  5
2B3
 66
     1
 10
0.0
 20
0.0
 30
0.0
  0
VERTEX
  8
0
  6
CONTINUOUS
 62
     3
  5
4D3
 10
80.604975
 20
-121.464704
 30
0.0
  0
VERTEX
  8
0
  6
CONTINUOUS
 62
     3
  5
4D4
 10
80.604601
 20
-121.625192
 30
0.0
  0
VERTEX
  8
0
  6
CONTINUOUS
 62
     3
  5
4D5
 10
80.603506
 20
-121.785779
 30
0.0
  0
VERTEX
  8
0
  6
CONTINUOUS
 62
     3
  5
4D6
 10
80.601691
 20
-121.946473
 30
0.0
  0
VERTEX
  8
0
  6
CONTINUOUS
 62
     3
  5
4D7
 10
80.599156
 20
-122.107284
 30
0.0
  0
VERTEX
  8
0
  6
CONTINUOUS
 62
     3
  5
4D8
 10
80.595904
 20
-122.268219
 30
0.0
  0
VERTEX
  8
0
  6
CONTINUOUS
 62
     3
  5
4D9
 10
80.591935
 20
-122.429288
 30
0.0
  0
VERTEX
  8
0
  6
CONTINUOUS
 62
     3
  5
4DA
 10
80.587251
 20
-122.590498
 30
0.0
  0
VERTEX
  8
0
  6
CONTINUOUS
 62
     3
  5
4DB
 10
80.581852
 20
-122.751859
 30
0.0
  0
VERTEX
  8
0
  6
CONTINUOUS
 62
     3
  5
4DC
 10
80.575739
 20
-122.913379
 30
0.0
  0
VERTEX
  8
0
  6
CONTINUOUS
 62
     3
  5
4DD
 10
80.568915
 20
-123.075066
 30
0.0
  0
VERTEX
  8
0
  6
CONTINUOUS
 62
     3
  5
4DE
 10
80.561379
 20
-123.236929
 30
0.0
  0
VERTEX
  8
0
  6
CONTINUOUS
 62
     3
  5
4DF
 10
80.553133
 20
-123.398977
 30
0.0
  0
VERTEX
  8
0
  6
CONTINUOUS
 62
     3
  5
4E0
 10
80.544178
 20
-123.561217
 30
0.0
  0
VERTEX
  8
0
  6
CONTINUOUS
 62
     3
  5
4E1
 10
80.534515
 20
-123.723657
 30
0.0
  0
VERTEX
  8
0
  6
CONTINUOUS
 62
     3
  5
4E2
 10
80.524145
 20
-123.886307
 30
0.0
  0
VERTEX
  8
0
  6
CONTINUOUS
 62
     3
  5
4E3
 10
80.513068
 20
-124.049175
 30
0.0
  0
VERTEX
  8
0
  6
CONTINUOUS
 62
     3
  5
4E4
 10
80.457951
 20
-124.745457
 30
0.0
  0
VERTEX
  8
0
  6
CONTINUOUS
 62
     3
  5
4E5
 10
80.389988
 20
-125.444292
 30
0.0
  0
VERTEX
  8
0
  6
CONTINUOUS
 62
     3
  5
4E6
 10
80.309095
 20
-126.144945
 30
0.0
  0
VERTEX
  8
0
  6
CONTINUOUS
 62
     3
  5
4E7
 10
80.215193
 20
-126.846681
 30
0.0
  0
VERTEX
  8
0
  6
CONTINUOUS
 62
     3
  5
4E8
 10
80.108209
 20
-127.548767
 30
0.0
  0
VERTEX
  8
0
  6
CONTINUOUS
 62
     3
  5
4E9
 10
79.988074
 20
-128.250474
 30
0.0
  0
VERTEX
  8
0
  6
CONTINUOUS
 62
     3
  5
4EA
 10
79.854722
 20
-128.951074
 30
0.0
  0
VERTEX
  8
0
  6
CONTINUOUS
 62
     3
  5
4EB
 10
79.708095
 20
-129.64984
 30
0.0
  0
VERTEX
  8
0
  6
CONTINUOUS
 62
     3
  5
4EC
 10
79.548137
 20
-130.346048
 30
0.0
  0
VERTEX
  8
0
  6
CONTINUOUS
 62
     3
  5
4ED
 10
79.374797
 20
-131.038977
 30
0.0
  0
VERTEX
  8
0
  6
CONTINUOUS
 62
     3
  5
4EE
 10
79.188031
 20
-131.727908
 30
0.0
  0
VERTEX
  8
0
  6
CONTINUOUS
 62
     3
  5
4EF
 10
78.987799
 20
-132.412123
 30
0.0
  0
VERTEX
  8
0
  6
CONTINUOUS
 62
     3
  5
4F0
 10
78.774065
 20
-133.090911
 30
0.0
  0
VERTEX
  8
0
  6
CONTINUOUS
 62
     3
  5
4F1
 10
78.5468
 20
-133.76356
 30
0.0
  0
VERTEX
  8
0
  6
CONTINUOUS
 62
     3
  5
4F2
 10
78.305979
 20
-134.429365
 30
0.0
  0
VERTEX
  8
0
  6
CONTINUOUS
 62
     3
  5
4F3
 10
78.051585
 20
-135.087625
 30
0.0
  0
VERTEX
  8
0
  6
CONTINUOUS
 62
     3
  5
4F4
 10
77.783603
 20
-135.737643
 30
0.0
  0
VERTEX
  8
0
  6
CONTINUOUS
 62
     3
  5
4F5
 10
77.502027
 20
-136.378728
 30
0.0
  0
VERTEX
  8
0
  6
CONTINUOUS
 62
     3
  5
4F6
 10
77.206853
 20
-137.010198
 30
0.0
  0
VERTEX
  8
0
  6
CONTINUOUS
 62
     3
  5
4F7
 10
76.898084
 20
-137.631377
 30
0.0
  0
VERTEX
  8
0
  6
CONTINUOUS
 62
     3
  5
4F8
 10
76.575728
 20
-138.241598
 30
0.0
  0
VERTEX
  8
0
  6
CONTINUOUS
 62
     3
  5
4F9
 10
76.239795
 20
-138.840204
 30
0.0
  0
VERTEX
  8
0
  6
CONTINUOUS
 62
     3
  5
4FA
 10
75.890301
 20
-139.426549
 30
0.0
  0
VERTEX
  8
0
  6
CONTINUOUS
 62
     3
  5
4FB
 10
75.52726
 20
-140.000003
 30
0.0
  0
VERTEX
  8
0
  6
CONTINUOUS
 62
     3
  5
4FC
 10
75.150692
 20
-140.559944
 30
0.0
  0
VERTEX
  8
0
  6
CONTINUOUS
 62
     3
  5
4FD
 10
74.760612
 20
-141.10577
 30
0.0
  0
VERTEX
  8
0
  6
CONTINUOUS
 62
     3
  5
4FE
 10
74.357034
 20
-141.636895
 30
0.0
  0
VERTEX
  8
0
  6
CONTINUOUS
 62
     3
  5
4FF
 10
73.939969
 20
-142.152747
 30
0.0
  0
VERTEX
  8
0
  6
CONTINUOUS
 62
     3
  5
500
 10
73.509416
 20
-142.652775
 30
0.0
  0
VERTEX
  8
0
  6
CONTINUOUS
 62
     3
  5
501
 10
73.065368
 20
-143.136449
 30
0.0
  0
VERTEX
  8
0
  6
CONTINUOUS
 62
     3
  5
502
 10
72.6078
 20
-143.603253
 30
0.0
  0
VERTEX
  8
0
  6
CONTINUOUS
 62
     3
  5
503
 10
72.136673
 20
-144.052693
 30
0.0
  0
VERTEX
  8
0
  6
CONTINUOUS
 62
     3
  5
504
 10
71.521901
 20
-144.595494
 30
0.0
  0
VERTEX
  8
0
  6
CONTINUOUS
 62
     3
  5
505
 10
70.882667
 20
-145.113662
 30
0.0
  0
VERTEX
  8
0
  6
CONTINUOUS
 62
     3
  5
506
 10
70.219739
 20
-145.607561
 30
0.0
  0
VERTEX
  8
0
  6
CONTINUOUS
 62
     3
  5
507
 10
69.53393
 20
-146.077509
 30
0.0
  0
VERTEX
  8
0
  6
CONTINUOUS
 62
     3
  5
508
 10
68.826099
 20
-146.523785
 30
0.0
  0
VERTEX
  8
0
  6
CONTINUOUS
 62
     3
  5
509
 10
68.097155
 20
-146.946642
 30
0.0
  0
VERTEX
  8
0
  6
CONTINUOUS
 62
     3
  5
50A
 10
67.348049
 20
-147.346317
 30
0.0
  0
VERTEX
  8
0
  6
CONTINUOUS
 62
     3
  5
50B
 10
66.579778
 20
-147.723035
 30
0.0
  0
VERTEX
  8
0
  6
CONTINUOUS
 62
     3
  5
50C
 10
65.793377
 20
-148.077018
 30
0.0
  0
VERTEX
  8
0
  6
CONTINUOUS
 62
     3
  5
50D
 10
64.989915
 20
-148.408492
 30
0.0
  0
VERTEX
  8
0
  6
CONTINUOUS
 62
     3
  5
50E
 10
64.170494
 20
-148.717686
 30
0.0
  0
VERTEX
  8
0
  6
CONTINUOUS
 62
     3
  5
50F
 10
63.336241
 20
-149.004841
 30
0.0
  0
VERTEX
  8
0
  6
CONTINUOUS
 62
     3
  5
510
 10
62.488307
 20
-149.270206
 30
0.0
  0
VERTEX
  8
0
  6
CONTINUOUS
 62
     3
  5
511
 10
61.62786
 20
-149.514046
 30
0.0
  0
VERTEX
  8
0
  6
CONTINUOUS
 62
     3
  5
512
 10
60.756087
 20
-149.736638
 30
0.0
  0
VERTEX
  8
0
  6
CONTINUOUS
 62
     3
  5
513
 10
59.874183
 20
-149.93827
 30
0.0
  0
VERTEX
  8
0
  6
CONTINUOUS
 62
     3
  5
514
 10
58.983357
 20
-150.119247
 30
0.0
  0
VERTEX
  8
0
  6
CONTINUOUS
 62
     3
  5
515
 10
58.084824
 20
-150.279885
 30
0.0
  0
VERTEX
  8
0
  6
CONTINUOUS
 62
     3
  5
516
 10
57.179807
 20
-150.420515
 30
0.0
  0
VERTEX
  8
0
  6
CONTINUOUS
 62
     3
  5
517
 10
56.269531
 20
-150.541477
 30
0.0
  0
VERTEX
  8
0
  6
CONTINUOUS
 62
     3
  5
518
 10
55.355228
 20
-150.643124
 30
0.0
  0
VERTEX
  8
0
  6
CONTINUOUS
 62
     3
  5
519
 10
54.438131
 20
-150.72582
 30
0.0
  0
VERTEX
  8
0
  6
CONTINUOUS
 62
     3
  5
51A
 10
53.519476
 20
-150.789938
 30
0.0
  0
VERTEX
  8
0
  6
CONTINUOUS
 62
     3
  5
51B
 10
52.600499
 20
-150.835862
 30
0.0
  0
VERTEX
  8
0
  6
CONTINUOUS
 62
     3
  5
51C
 10
51.682439
 20
-150.863983
 30
0.0
  0
VERTEX
  8
0
  6
CONTINUOUS
 62
     3
  5
51D
 10
50.766536
 20
-150.874703
 30
0.0
  0
VERTEX
  8
0
  6
CONTINUOUS
 62
     3
  5
51E
 10
49.854033
 20
-150.86843
 30
0.0
  0
VERTEX
  8
0
  6
CONTINUOUS
 62
     3
  5
51F
 10
48.946171
 20
-150.84558
 30
0.0
  0
VERTEX
  8
0
  6
CONTINUOUS
 62
     3
  5
520
 10
48.044196
 20
-150.806578
 30
0.0
  0
VERTEX
  8
0
  6
CONTINUOUS
 62
     3
  5
521
 10
47.149354
 20
-150.751855
 30
0.0
  0
VERTEX
  8
0
  6
CONTINUOUS
 62
     3
  5
522
 10
46.262894
 20
-150.681849
 30
0.0
  0
VERTEX
  8
0
  6
CONTINUOUS
 62
     3
  5
523
 10
45.38607
 20
-150.597008
 30
0.0
  0
SEQEND
  8
0
  6
CONTINUOUS
 62
     3
  5
524
  0
POLYLINE
  8
0
  6
CONTINUOUS
 62
     3
  5
2B4
 66
     1
 10
0.0
 20
0.0
 30
0.0
  0
VERTEX
  8
0
  6
CONTINUOUS
 62
     3
  5
525
 10
84.52862
 20
-121.533242
 30
0.0
  0
VERTEX
  8
0
  6
CONTINUOUS
 62
     3
  5
526
 10
84.527925
 20
-121.707129
 30
0.0
  0
VERTEX
  8
0
  6
CONTINUOUS
 62
     3
  5
527
 10
84.526468
 20
-121.88106
 30
0.0
  0
VERTEX
  8
0
  6
CONTINUOUS
 62
     3
  5
528
 10
84.524251
 20
-122.055041
 30
0.0
  0
VERTEX
  8
0
  6
CONTINUOUS
 62
     3
  5
529
 10
84.521276
 20
-122.229077
 30
0.0
  0
VERTEX
  8
0
  6
CONTINUOUS
 62
     3
  5
52A
 10
84.517545
 20
-122.403173
 30
0.0
  0
VERTEX
  8
0
  6
CONTINUOUS
 62
     3
  5
52B
 10
84.51306
 20
-122.577333
 30
0.0
  0
VERTEX
  8
0
  6
CONTINUOUS
 62
     3
  5
52C
 10
84.507823
 20
-122.751564
 30
0.0
  0
VERTEX
  8
0
  6
CONTINUOUS
 62
     3
  5
52D
 10
84.501835
 20
-122.92587
 30
0.0
  0
VERTEX
  8
0
  6
CONTINUOUS
 62
     3
  5
52E
 10
84.495099
 20
-123.100257
 30
0.0
  0
VERTEX
  8
0
  6
CONTINUOUS
 62
     3
  5
52F
 10
84.487617
 20
-123.27473
 30
0.0
  0
VERTEX
  8
0
  6
CONTINUOUS
 62
     3
  5
530
 10
84.47939
 20
-123.449294
 30
0.0
  0
VERTEX
  8
0
  6
CONTINUOUS
 62
     3
  5
531
 10
84.470421
 20
-123.623954
 30
0.0
  0
VERTEX
  8
0
  6
CONTINUOUS
 62
     3
  5
532
 10
84.460712
 20
-123.798715
 30
0.0
  0
VERTEX
  8
0
  6
CONTINUOUS
 62
     3
  5
533
 10
84.450265
 20
-123.973584
 30
0.0
  0
VERTEX
  8
0
  6
CONTINUOUS
 62
     3
  5
534
 10
84.439081
 20
-124.148565
 30
0.0
  0
VERTEX
  8
0
  6
CONTINUOUS
 62
     3
  5
535
 10
84.427164
 20
-124.323663
 30
0.0
  0
VERTEX
  8
0
  6
CONTINUOUS
 62
     3
  5
536
 10
84.366492
 20
-125.090135
 30
0.0
  0
VERTEX
  8
0
  6
CONTINUOUS
 62
     3
  5
537
 10
84.291703
 20
-125.859151
 30
0.0
  0
VERTEX
  8
0
  6
CONTINUOUS
 62
     3
  5
538
 10
84.202695
 20
-126.630092
 30
0.0
  0
VERTEX
  8
0
  6
CONTINUOUS
 62
     3
  5
539
 10
84.099358
 20
-127.402339
 30
0.0
  0
VERTEX
  8
0
  6
CONTINUOUS
 62
     3
  5
53A
 10
83.981578
 20
-128.175269
 30
0.0
  0
VERTEX
  8
0
  6
CONTINUOUS
 62
     3
  5
53B
 10
83.849238
 20
-128.948257
 30
0.0
  0
VERTEX
  8
0
  6
CONTINUOUS
 62
     3
  5
53C
 10
83.702215
 20
-129.720677
 30
0.0
  0
VERTEX
  8
0
  6
CONTINUOUS
 62
     3
  5
53D
 10
83.540382
 20
-130.491901
 30
0.0
  0
VERTEX
  8
0
  6
CONTINUOUS
 62
     3
  5
53E
 10
83.363607
 20
-131.261297
 30
0.0
  0
VERTEX
  8
0
  6
CONTINUOUS
 62
     3
  5
53F
 10
83.171752
 20
-132.028233
 30
0.0
  0
VERTEX
  8
0
  6
CONTINUOUS
 62
     3
  5
540
 10
82.964676
 20
-132.792073
 30
0.0
  0
VERTEX
  8
0
  6
CONTINUOUS
 62
     3
  5
541
 10
82.742232
 20
-133.552178
 30
0.0
  0
VERTEX
  8
0
  6
CONTINUOUS
 62
     3
  5
542
 10
82.504267
 20
-134.307909
 30
0.0
  0
VERTEX
  8
0
  6
CONTINUOUS
 62
     3
  5
543
 10
82.250624
 20
-135.058619
 30
0.0
  0
VERTEX
  8
0
  6
CONTINUOUS
 62
     3
  5
544
 10
81.98114
 20
-135.80366
 30
0.0
  0
VERTEX
  8
0
  6
CONTINUOUS
 62
     3
  5
545
 10
81.695646
 20
-136.542379
 30
0.0
  0
VERTEX
  8
0
  6
CONTINUOUS
 62
     3
  5
546
 10
81.393968
 20
-137.274117
 30
0.0
  0
VERTEX
  8
0
  6
CONTINUOUS
 62
     3
  5
547
 10
81.075928
 20
-137.998211
 30
0.0
  0
VERTEX
  8
0
  6
CONTINUOUS
 62
     3
  5
548
 10
80.741339
 20
-138.713988
 30
0.0
  0
VERTEX
  8
0
  6
CONTINUOUS
 62
     3
  5
549
 10
80.390012
 20
-139.420771
 30
0.0
  0
VERTEX
  8
0
  6
CONTINUOUS
 62
     3
  5
54A
 10
80.021754
 20
-140.11787
 30
0.0
  0
VERTEX
  8
0
  6
CONTINUOUS
 62
     3
  5
54B
 10
79.636365
 20
-140.804588
 30
0.0
  0
VERTEX
  8
0
  6
CONTINUOUS
 62
     3
  5
54C
 10
79.233644
 20
-141.480216
 30
0.0
  0
VERTEX
  8
0
  6
CONTINUOUS
 62
     3
  5
54D
 10
78.813387
 20
-142.144032
 30
0.0
  0
VERTEX
  8
0
  6
CONTINUOUS
 62
     3
  5
54E
 10
78.37539
 20
-142.795299
 30
0.0
  0
VERTEX
  8
0
  6
CONTINUOUS
 62
     3
  5
54F
 10
77.919449
 20
-143.433267
 30
0.0
  0
VERTEX
  8
0
  6
CONTINUOUS
 62
     3
  5
550
 10
77.445362
 20
-144.057168
 30
0.0
  0
VERTEX
  8
0
  6
CONTINUOUS
 62
     3
  5
551
 10
76.952933
 20
-144.666217
 30
0.0
  0
VERTEX
  8
0
  6
CONTINUOUS
 62
     3
  5
552
 10
76.441975
 20
-145.259611
 30
0.0
  0
VERTEX
  8
0
  6
CONTINUOUS
 62
     3
  5
553
 10
75.912307
 20
-145.836527
 30
0.0
  0
VERTEX
  8
0
  6
CONTINUOUS
 62
     3
  5
554
 10
75.363767
 20
-146.396125
 30
0.0
  0
VERTEX
  8
0
  6
CONTINUOUS
 62
     3
  5
555
 10
74.796208
 20
-146.937544
 30
0.0
  0
VERTEX
  8
0
  6
CONTINUOUS
 62
     3
  5
556
 10
74.055758
 20
-147.591334
 30
0.0
  0
VERTEX
  8
0
  6
CONTINUOUS
 62
     3
  5
557
 10
73.290044
 20
-148.212053
 30
0.0
  0
VERTEX
  8
0
  6
CONTINUOUS
 62
     3
  5
558
 10
72.500607
 20
-148.80023
 30
0.0
  0
VERTEX
  8
0
  6
CONTINUOUS
 62
     3
  5
559
 10
71.688943
 20
-149.356443
 30
0.0
  0
VERTEX
  8
0
  6
CONTINUOUS
 62
     3
  5
55A
 10
70.856503
 20
-149.881306
 30
0.0
  0
VERTEX
  8
0
  6
CONTINUOUS
 62
     3
  5
55B
 10
70.00469
 20
-150.375461
 30
0.0
  0
VERTEX
  8
0
  6
CONTINUOUS
 62
     3
  5
55C
 10
69.134863
 20
-150.839566
 30
0.0
  0
VERTEX
  8
0
  6
CONTINUOUS
 62
     3
  5
55D
 10
68.248334
 20
-151.27429
 30
0.0
  0
VERTEX
  8
0
  6
CONTINUOUS
 62
     3
  5
55E
 10
67.34638
 20
-151.680304
 30
0.0
  0
VERTEX
  8
0
  6
CONTINUOUS
 62
     3
  5
55F
 10
66.430241
 20
-152.05828
 30
0.0
  0
VERTEX
  8
0
  6
CONTINUOUS
 62
     3
  5
560
 10
65.501126
 20
-152.40888
 30
0.0
  0
VERTEX
  8
0
  6
CONTINUOUS
 62
     3
  5
561
 10
64.560217
 20
-152.732759
 30
0.0
  0
VERTEX
  8
0
  6
CONTINUOUS
 62
     3
  5
562
 10
63.608675
 20
-153.030561
 30
0.0
  0
VERTEX
  8
0
  6
CONTINUOUS
 62
     3
  5
563
 10
62.647641
 20
-153.302917
 30
0.0
  0
VERTEX
  8
0
  6
CONTINUOUS
 62
     3
  5
564
 10
61.67824
 20
-153.550445
 30
0.0
  0
VERTEX
  8
0
  6
CONTINUOUS
 62
     3
  5
565
 10
60.701584
 20
-153.773749
 30
0.0
  0
VERTEX
  8
0
  6
CONTINUOUS
 62
     3
  5
566
 10
59.718778
 20
-153.97342
 30
0.0
  0
VERTEX
  8
0
  6
CONTINUOUS
 62
     3
  5
567
 10
58.730914
 20
-154.150035
 30
0.0
  0
VERTEX
  8
0
  6
CONTINUOUS
 62
     3
  5
568
 10
57.739082
 20
-154.30416
 30
0.0
  0
VERTEX
  8
0
  6
CONTINUOUS
 62
     3
  5
569
 10
56.744366
 20
-154.436348
 30
0.0
  0
VERTEX
  8
0
  6
CONTINUOUS
 62
     3
  5
56A
 10
55.747844
 20
-154.54714
 30
0.0
  0
VERTEX
  8
0
  6
CONTINUOUS
 62
     3
  5
56B
 10
54.750594
 20
-154.637067
 30
0.0
  0
VERTEX
  8
0
  6
CONTINUOUS
 62
     3
  5
56C
 10
53.75369
 20
-154.70665
 30
0.0
  0
VERTEX
  8
0
  6
CONTINUOUS
 62
     3
  5
56D
 10
52.758206
 20
-154.7564
 30
0.0
  0
VERTEX
  8
0
  6
CONTINUOUS
 62
     3
  5
56E
 10
51.765213
 20
-154.786819
 30
0.0
  0
VERTEX
  8
0
  6
CONTINUOUS
 62
     3
  5
56F
 10
50.775782
 20
-154.798401
 30
0.0
  0
VERTEX
  8
0
  6
CONTINUOUS
 62
     3
  5
570
 10
49.790981
 20
-154.791632
 30
0.0
  0
VERTEX
  8
0
  6
CONTINUOUS
 62
     3
  5
571
 10
48.811877
 20
-154.76699
 30
0.0
  0
VERTEX
  8
0
  6
CONTINUOUS
 62
     3
  5
572
 10
47.839536
 20
-154.724946
 30
0.0
  0
VERTEX
  8
0
  6
CONTINUOUS
 62
     3
  5
573
 10
46.875022
 20
-154.665962
 30
0.0
  0
VERTEX
  8
0
  6
CONTINUOUS
 62
     3
  5
574
 10
45.919396
 20
-154.590493
 30
0.0
  0
VERTEX
  8
0
  6
CONTINUOUS
 62
     3
  5
575
 10
44.973714
 20
-154.498988
 30
0.0
  0
SEQEND
  8
0
  6
CONTINUOUS
 62
     3
  5
576
  0
ARC
  8
0
  6
CONTINUOUS
 62
     3
  5
2B5
 10
127.01545
 20
-61.417939
 30
0.0
 40
18.480799
 50
206.51836
 51
267.0
  0
ARC
  8
0
  6
CONTINUOUS
 62
     3
  5
2B6
 10
125.968731
 20
-81.390529
 30
0.0
 40
1.519201
 50
267.0
 51
87.0
  0
ARC
  8
0
  6
CONTINUOUS
 62
     3
  5
2B7
 10
127.01545
 20
-61.417939
 30
0.0
 40
21.519201
 50
203.0
 51
267.0
  0
CIRCLE
  8
0
  6
CONTINUOUS
 62
     3
  5
2B8
 10
125.272335
 20
-81.341833
 30
0.0
 40
0.85
  0
CIRCLE
  8
0
  6
CONTINUOUS
 62
     3
  5
2B9
 10
119.903102
 20
-71.575424
 30
0.0
 40
4.5
  0
CIRCLE
  8
0
  6
CONTINUOUS
 62
     3
  5
2BA
 10
121.839069
 20
-80.736455
 30
0.0
 40
0.85
  0
ARC
  8
0
  6
CONTINUOUS
 62
     3
  5
2BB
 10
108.605353
 20
-69.232561
 30
0.0
 40
1.519201
 50
114.938017
 51
203.0
  0
CIRCLE
  8
0
  6
CONTINUOUS
 62
     3
  5
2BC
 10
115.543921
 20
-77.80098
 30
0.0
 40
0.85
  0
CIRCLE
  8
0
  6
CONTINUOUS
 62
     3
  5
2BD
 10
110.632409
 20
-72.889467
 30
0.0
 40
0.85
  0
CIRCLE
  8
0
  6
CONTINUOUS
 62
     3
  5
2BE
 10
112.873315
 20
-75.560074
 30
0.0
 40
0.85
  0
CIRCLE
  8
0
  6
CONTINUOUS
 62
     3
  5
2BF
 10
118.563085
 20
-79.544094
 30
0.0
 40
0.85
  0
ARC
  8
0
  6
CONTINUOUS
 62
     3
  5
2C0
 10
100.0
 20
-100.0
 30
0.0
 40
53.75
 50
151.066029
 51
208.933971
  0
ARC
  8
0
  6
CONTINUOUS
 62
     3
  5
2C1
 10
100.0
 20
-100.0
 30
0.0
 40
53.75
 50
31.066029
 51
46.328888
  0
ARC
  8
0
  6
CONTINUOUS
 62
     3
  5
2C2
 10
100.0
 20
-100.0
 30
0.0
 40
53.75
 50
331.066029
 51
28.933971
  0
ARC
  8
0
  6
CONTINUOUS
 62
     3
  5
2C3
 10
100.0
 20
-100.0
 30
0.0
 40
53.75
 50
271.066029
 51
328.933971
  0
ARC
  8
0
  6
CONTINUOUS
 62
     3
  5
2C4
 10
130.310889
 20
-117.5
 30
0.0
 40
7.75
 50
337.413674
 51
142.586326
  0
ARC
  8
0
  6
CONTINUOUS
 62
     3
  5
2C5
 10
100.0
 20
-65.0
 30
0.0
 40
7.543967
 50
82.382667
 51
97.617333
  0
ARC
  8
0
  6
CONTINUOUS
 62
     3
  5
2C6
 10
100.0
 20
-65.0
 30
0.0
 40
7.543967
 50
262.382667
 51
277.617333
  0
ARC
  8
0
  6
CONTINUOUS
 62
     3
  5
2C7
 10
130.310889
 20
-117.5
 30
0.0
 40
7.543967
 50
322.382667
 51
337.617333
  0
ARC
  8
0
  6
CONTINUOUS
 62
     3
  5
2C8
 10
130.310889
 20
-117.5
 30
0.0
 40
7.543967
 50
142.382667
 51
157.617333
  0
ARC
  8
0
  6
CONTINUOUS
 62
     3
  5
2C9
 10
69.689111
 20
-117.5
 30
0.0
 40
7.543967
 50
202.382667
 51
217.617333
  0
ARC
  8
0
  6
CONTINUOUS
 62
     3
  5
2CA
 10
69.689111
 20
-117.5
 30
0.0
 40
7.75
 50
217.413674
 51
22.586326
  0
ARC
  8
0
  6
CONTINUOUS
 62
     3
  5
2CB
 10
100.0
 20
-65.0
 30
0.0
 40
7.75
 50
277.413674
 51
82.586326
  0
ARC
  8
0
  6
CONTINUOUS
 62
     3
  5
2CC
 10
69.689111
 20
-117.5
 30
0.0
 40
7.543967
 50
22.382667
 51
37.617333
  0
CIRCLE
  8
0
  6
CONTINUOUS
 62
     3
  5
2CD
 10
130.310889
 20
-117.5
 30
0.0
 40
7.25
  0
ARC
  8
0
  6
CONTINUOUS
 62
     3
  5
2CE
 10
130.310889
 20
-117.5
 30
0.0
 40
7.75
 50
157.413674
 51
322.586326
  0
CIRCLE
  8
0
  6
CONTINUOUS
 62
     3
  5
2CF
 10
69.689111
 20
-117.5
 30
0.0
 40
7.25
  0
ARC
  8
0
  6
CONTINUOUS
 62
     3
  5
2D0
 10
69.689111
 20
-117.5
 30
0.0
 40
7.75
 50
37.413674
 51
202.586326
  0
CIRCLE
  8
0
  6
CONTINUOUS
 62
     3
  5
2D1
 10
100.0
 20
-65.0
 30
0.0
 40
7.25
  0
ARC
  8
0
  6
CONTINUOUS
 62
     3
  5
2D2
 10
101.85688
 20
-147.618039
 30
0.0
 40
3.6
 50
256.230153
 51
103.769847
  0
ARC
  8
0
  6
CONTINUOUS
 62
     3
  5
2D3
 10
96.365483
 20
-92.205753
 30
0.0
 40
35.333676
 50
283.463041
 51
306.536959
  0
ARC
  8
0
  6
CONTINUOUS
 62
     3
  5
2D4
 10
95.879712
 20
-147.095104
 30
0.0
 40
3.6
 50
29.917254
 51
141.44269
  0
ARC
  8
0
  6
CONTINUOUS
 62
     3
  5
2D5
 10
96.799205
 20
-136.58525
 30
0.0
 40
3.6
 50
208.55731
 51
307.685867
  0
ARC
  8
0
  6
CONTINUOUS
 62
     3
  5
2D6
 10
101.85688
 20
-147.618039
 30
0.0
 40
3.6
 50
208.55731
 51
217.478859
  0
ARC
  8
0
  6
CONTINUOUS
 62
     3
  5
2D7
 10
95.879712
 20
-147.095104
 30
0.0
 40
3.6
 50
208.55731
 51
321.44269
  0
ARC
  8
0
  6
CONTINUOUS
 62
     3
  5
2D8
 10
89.902544
 20
-146.57217
 30
0.0
 40
3.6
 50
28.55731
 51
321.44269
  0
ARC
  8
0
  6
CONTINUOUS
 62
     3
  5
2D9
 10
90.822037
 20
-136.062316
 30
0.0
 40
3.6
 50
28.55731
 51
321.44269
  0
ARC
  8
0
  6
CONTINUOUS
 62
     3
  5
2DA
 10
96.799205
 20
-136.58525
 30
0.0
 40
3.6
 50
52.314133
 51
141.44269
  0
ARC
  8
0
  6
CONTINUOUS
 62
     3
  5
2DB
 10
102.776374
 20
-137.108185
 30
0.0
 40
3.6
 50
240.433257
 51
119.566743
  0
ARC
  8
0
  6
CONTINUOUS
 62
     3
  5
2DC
 10
101.85688
 20
-147.618039
 30
0.0
 40
4.0
 50
257.630223
 51
102.369777
  0
ARC
  8
0
  6
CONTINUOUS
 62
     3
  5
2DD
 10
96.799205
 20
-136.58525
 30
0.0
 40
4.0
 50
56.619357
 51
133.590378
  0
ARC
  8
0
  6
CONTINUOUS
 62
     3
  5
2DE
 10
95.879712
 20
-147.095104
 30
0.0
 40
4.0
 50
38.732838
 51
133.590378
  0
ARC
  8
0
  6
CONTINUOUS
 62
     3
  5
2DF
 10
101.85688
 20
-147.618039
 30
0.0
 40
4.0
 50
216.409622
 51
224.420679
  0
ARC
  8
0
  6
CONTINUOUS
 62
     3
  5
2E0
 10
95.879712
 20
-147.095104
 30
0.0
 40
4.0
 50
216.409622
 51
313.590378
  0
ARC
  8
0
  6
CONTINUOUS
 62
     3
  5
2E1
 10
89.902544
 20
-146.57217
 30
0.0
 40
4.0
 50
36.409622
 51
313.590378
  0
ARC
  8
0
  6
CONTINUOUS
 62
     3
  5
2E2
 10
90.822037
 20
-136.062316
 30
0.0
 40
4.0
 50
36.409622
 51
313.590378
  0
ARC
  8
0
  6
CONTINUOUS
 62
     3
  5
2E3
 10
96.799205
 20
-136.58525
 30
0.0
 40
4.0
 50
216.409622
 51
303.380643
  0
ARC
  8
0
  6
CONTINUOUS
 62
     3
  5
2E4
 10
102.776374
 20
-137.108185
 30
0.0
 40
4.0
 50
243.634652
 51
116.365348
  0
LINE
  8
0
  6
CONTINUOUS
 62
     3
  5
2E5
 10
91.430174
 20
-149.190274
 30
0.0
 11
87.943493
 21
-148.885229
 31
0.0
  0
LINE
  8
0
  6
CONTINUOUS
 62
     3
  5
2E6
 10
97.407343
 20
-149.713209
 30
0.0
 11
93.920661
 21
-149.408164
 31
0.0
  0
LINE
  8
0
  6
CONTINUOUS
 62
     3
  5
2E7
 10
97.843121
 20
-144.732235
 30
0.0
 11
94.35644
 21
-144.42719
 31
0.0
  0
LINE
  8
0
  6
CONTINUOUS
 62
     3
  5
2E8
 10
91.865953
 20
-144.209301
 30
0.0
 11
88.379272
 21
-143.904256
 31
0.0
  0
LINE
  8
0
  6
CONTINUOUS
 62
     3
  5
2E9
 10
98.758257
 20
-134.272191
 30
0.0
 11
95.271575
 21
-133.967146
 31
0.0
  0
LINE
  8
0
  6
CONTINUOUS
 62
     3
  5
2EA
 10
92.781088
 20
-133.749257
 30
0.0
 11
89.294407
 21
-133.444211
 31
0.0
  0
LINE
  8
0
  6
CONTINUOUS
 62
     3
  5
2EB
 10
92.34531
 20
-138.73023
 30
0.0
 11
88.858628
 21
-138.425185
 31
0.0
  0
LINE
  8
0
  6
CONTINUOUS
 62
     3
  5
2EC
 10
98.322478
 20
-139.253164
 30
0.0
 11
94.835796
 21
-138.948119
 31
0.0
  0
LINE
  8
0
  6
CONTINUOUS
 62
     3
  5
2ED
 10
104.735425
 20
-134.795125
 30
0.0
 11
101.248743
 21
-134.49008
 31
0.0
  0
LINE
  8
0
  6
CONTINUOUS
 62
     3
  5
2EE
 10
103.384511
 20
-150.236143
 30
0.0
 11
99.897829
 21
-149.931098
 31
0.0
  0
LINE
  8
0
  6
CONTINUOUS
 62
     3
  5
2EF
 10
104.299646
 20
-139.776099
 30
0.0
 11
100.812965
 21
-139.471054
 31
0.0
  0
LINE
  8
0
  6
CONTINUOUS
 62
     3
  5
2F0
 10
103.820289
 20
-145.25517
 30
0.0
 11
100.333608
 21
-144.950125
 31
0.0
  0
ARC
  8
0
  6
CONTINUOUS
 62
     3
  5
2F1
 10
100.0
 20
-100.0
 30
0.0
 40
52.15
 50
271.09874
 51
328.90126
  0
LINE
  8
0
  6
CONTINUOUS
 62
     3
  5
2F2
 10
101.0
 20
-151.114574
 30
0.0
 11
101.0
 21
-153.740697
 31
0.0
  0
LINE
  8
0
  6
CONTINUOUS
 62
     3
  5
2F3
 10
99.0
 20
-149.808526
 30
0.0
 11
99.0
 21
-153.740697
 31
0.0
  0
LINE
  8
0
  6
CONTINUOUS
 62
     3
  5
2F4
 10
99.0
 20
-139.434198
 30
0.0
 11
99.0
 21
-145.299609
 31
0.0
  0
LINE
  8
0
  6
CONTINUOUS
 62
     3
  5
2F5
 10
101.0
 20
-140.239398
 30
0.0
 11
101.0
 21
-144.121504
 31
0.0
  0
LINE
  8
0
  6
CONTINUOUS
 62
     3
  5
2F6
 10
102.687174
 20
-150.175134
 30
0.0
 11
102.796119
 21
-148.929891
 31
0.0
  0
LINE
  8
0
  6
CONTINUOUS
 62
     3
  5
2F7
 10
100.333608
 20
-144.950125
 30
0.0
 11
99.897829
 21
-149.931098
 31
0.0
  0
LINE
  8
0
  6
CONTINUOUS
 62
     3
  5
2F8
 10
100.595166
 20
-149.992107
 30
0.0
 11
100.70411
 21
-148.746864
 31
0.0
  0
LINE
  8
0
  6
CONTINUOUS
 62
     3
  5
2F9
 10
103.820289
 20
-145.25517
 30
0.0
 11
103.384511
 21
-150.236143
 31
0.0
  0
LINE
  8
0
  6
CONTINUOUS
 62
     3
  5
2FA
 10
96.710006
 20
-149.6522
 30
0.0
 11
96.818951
 21
-148.406956
 31
0.0
  0
LINE
  8
0
  6
CONTINUOUS
 62
     3
  5
2FB
 10
94.35644
 20
-144.42719
 30
0.0
 11
93.918482
 21
-149.433069
 31
0.0
  0
LINE
  8
0
  6
CONTINUOUS
 62
     3
  5
2FC
 10
94.617997
 20
-149.469173
 30
0.0
 11
94.726942
 21
-148.223929
 31
0.0
  0
LINE
  8
0
  6
CONTINUOUS
 62
     3
  5
2FD
 10
97.843121
 20
-144.732235
 30
0.0
 11
97.407343
 21
-149.713209
 31
0.0
  0
LINE
  8
0
  6
CONTINUOUS
 62
     3
  5
2FE
 10
90.732838
 20
-149.129265
 30
0.0
 11
90.841783
 21
-147.884022
 31
0.0
  0
LINE
  8
0
  6
CONTINUOUS
 62
     3
  5
2FF
 10
88.379272
 20
-143.904256
 30
0.0
 11
87.943493
 21
-148.885229
 31
0.0
  0
LINE
  8
0
  6
CONTINUOUS
 62
     3
  5
300
 10
88.640829
 20
-148.946238
 30
0.0
 11
88.749774
 21
-147.700995
 31
0.0
  0
LINE
  8
0
  6
CONTINUOUS
 62
     3
  5
301
 10
91.865953
 20
-144.209301
 30
0.0
 11
91.430174
 21
-149.190274
 31
0.0
  0
LINE
  8
0
  6
CONTINUOUS
 62
     3
  5
302
 10
89.991743
 20
-133.50522
 30
0.0
 11
89.882799
 21
-134.750464
 31
0.0
  0
LINE
  8
0
  6
CONTINUOUS
 62
     3
  5
303
 10
92.347489
 20
-138.705325
 30
0.0
 11
92.783267
 21
-133.724352
 31
0.0
  0
LINE
  8
0
  6
CONTINUOUS
 62
     3
  5
304
 10
92.083752
 20
-133.688247
 30
0.0
 11
91.974807
 21
-134.933491
 31
0.0
  0
LINE
  8
0
  6
CONTINUOUS
 62
     3
  5
305
 10
88.860807
 20
-138.40028
 30
0.0
 11
89.296586
 21
-133.419307
 31
0.0
  0
LINE
  8
0
  6
CONTINUOUS
 62
     3
  5
306
 10
95.968911
 20
-134.028155
 30
0.0
 11
95.859967
 21
-135.273398
 31
0.0
  0
LINE
  8
0
  6
CONTINUOUS
 62
     3
  5
307
 10
98.324657
 20
-139.22826
 30
0.0
 11
98.760435
 21
-134.247286
 31
0.0
  0
LINE
  8
0
  6
CONTINUOUS
 62
     3
  5
308
 10
98.06092
 20
-134.211182
 30
0.0
 11
97.951976
 21
-135.456425
 31
0.0
  0
LINE
  8
0
  6
CONTINUOUS
 62
     3
  5
309
 10
94.837975
 20
-138.923214
 30
0.0
 11
95.273754
 21
-133.942241
 31
0.0
  0
LINE
  8
0
  6
CONTINUOUS
 62
     3
  5
30A
 10
100.815143
 20
-139.446149
 30
0.0
 11
101.250922
 21
-134.465175
 31
0.0
  0
LINE
  8
0
  6
CONTINUOUS
 62
     3
  5
30B
 10
104.299646
 20
-139.776099
 30
0.0
 11
104.735425
 21
-134.795125
 31
0.0
  0
LINE
  8
0
  6
CONTINUOUS
 62
     3
  5
30C
 10
101.94608
 20
-134.551089
 30
0.0
 11
101.837135
 21
-135.796333
 31
0.0
  0
LINE
  8
0
  6
CONTINUOUS
 62
     3
  5
30D
 10
104.038088
 20
-134.734116
 30
0.0
 11
103.929144
 21
-135.97936
 31
0.0
  0
ARC
  8
0
  6
CONTINUOUS
 62
     3
  5
30E
 10
100.0
 20
-100.0
 30
0.0
 40
53.75
 50
91.066029
 51
148.933971
  0
CIRCLE
  8
0
  6
CONTINUOUS
 62
     3
  5
30F
 10
143.832567
 20
-103.834853
 30
0.0
 40
2.25
  0
CIRCLE
  8
0
  6
CONTINUOUS
 62
     3
  5
310
 10
74.762637
 20
-136.04269
 30
0.0
 40
2.25
  0
ARC
  8
0
  6
CONTINUOUS
 62
     3
  5
311
 10
96.365483
 20
-92.205753
 30
0.0
 40
37.733676
 50
283.463041
 51
306.536959
  0
CIRCLE
  8
0
  6
CONTINUOUS
 62
     3
  5
312
 10
81.404796
 20
-60.122457
 30
0.0
 40
2.25
  0
LINE
  8
0
  6
CONTINUOUS
 62
     3
  5
313
 10
105.150565
 20
-128.902519
 30
0.0
 11
104.591802
 21
-126.56847
 31
0.0
  0
LINE
  8
0
  6
CONTINUOUS
 62
     3
  5
314
 10
118.829895
 20
-122.523743
 30
0.0
 11
117.401076
 21
-120.595407
 31
0.0
  0
LINE
  8
0
  6
CONTINUOUS
 62
     3
  5
315
 10
103.929144
 20
-135.97936
 30
0.0
 11
101.837135
 21
-135.796333
 31
0.0
  0
LINE
  8
0
  6
CONTINUOUS
 62
     3
  5
316
 10
102.796119
 20
-148.929891
 30
0.0
 11
100.70411
 21
-148.746864
 31
0.0
  0
LINE
  8
0
  6
CONTINUOUS
 62
     3
  5
317
 10
88.749774
 20
-147.700995
 30
0.0
 11
90.841783
 21
-147.884022
 31
0.0
  0
LINE
  8
0
  6
CONTINUOUS
 62
     3
  5
318
 10
89.882799
 20
-134.750464
 30
0.0
 11
91.974807
 21
-134.933491
 31
0.0
  0
LINE
  8
0
  6
CONTINUOUS
 62
     3
  5
319
 10
95.859967
 20
-135.273398
 30
0.0
 11
97.951976
 21
-135.456425
 31
0.0
  0
LINE
  8
0
  6
CONTINUOUS
 62
     3
  5
31A
 10
94.726942
 20
-148.223929
 30
0.0
 11
96.818951
 21
-148.406956
 31
0.0
  0
CIRCLE
  8
0
  6
CONTINUOUS
 62
     3
  5
31B
 10
86.645263
 20
-71.360674
 30
0.0
 40
4.0
  0
LINE
  8
0
  6
CONTINUOUS
 62
     3
  5
31C
 10
99.0
 20
-113.96424
 30
0.0
 11
99.0
 21
-133.736303
 31
0.0
  0
LINE
  8
0
  6
CONTINUOUS
 62
     3
  5
31D
 10
101.0
 20
-113.96424
 30
0.0
 11
101.0
 21
-133.976971
 31
0.0
  0
LINE
  8
0
  6
CONTINUOUS
 62
     3
  5
31E
 10
87.406613
 20
-93.883905
 30
0.0
 11
52.959191
 21
-73.995677
 31
0.0
  0
LINE
  8
0
  6
CONTINUOUS
 62
     3
  5
31F
 10
88.406613
 20
-92.151855
 30
0.0
 11
53.959191
 21
-72.263626
 31
0.0
  0
LINE
  8
0
  6
CONTINUOUS
 62
     3
  5
320
 10
111.593387
 20
-92.151855
 30
0.0
 11
146.040809
 21
-72.263626
 31
0.0
  0
LINE
  8
0
  6
CONTINUOUS
 62
     3
  5
321
 10
112.593387
 20
-93.883905
 30
0.0
 11
147.040809
 21
-73.995677
 31
0.0
  0
LINE
  8
0
  6
CONTINUOUS
 62
     3
  5
322
 10
99.0
 20
-86.03576
 30
0.0
 11
99.0
 21
-72.477395
 31
0.0
  0
LINE
  8
0
  6
CONTINUOUS
 62
     3
  5
323
 10
101.0
 20
-86.03576
 30
0.0
 11
101.0
 21
-72.477395
 31
0.0
  0
LINE
  8
0
  6
CONTINUOUS
 62
     3
  5
324
 10
112.593387
 20
-106.116095
 30
0.0
 11
124.335275
 21
-112.895277
 31
0.0
  0
LINE
  8
0
  6
CONTINUOUS
 62
     3
  5
325
 10
111.593387
 20
-107.848145
 30
0.0
 11
123.335275
 21
-114.627328
 31
0.0
  0
LINE
  8
0
  6
CONTINUOUS
 62
     3
  5
326
 10
87.406613
 20
-106.116095
 30
0.0
 11
75.664725
 21
-112.895277
 31
0.0
  0
LINE
  8
0
  6
CONTINUOUS
 62
     3
  5
327
 10
88.406613
 20
-107.848145
 30
0.0
 11
76.664725
 21
-114.627328
 31
0.0
  0
ARC
  8
0
  6
CONTINUOUS
 62
     3
  5
328
 10
100.0
 20
-100.0
 30
0.0
 40
14.0
 50
214.096044
 51
325.903956
  0
CIRCLE
  8
0
  6
CONTINUOUS
 62
     3
  5
329
 10
100.0
 20
-100.0
 30
0.0
 40
12.0
  0
ARC
  8
0
  6
CONTINUOUS
 62
     3
  5
32A
 10
100.0
 20
-100.0
 30
0.0
 40
14.0
 50
94.096044
 51
145.903956
  0
ARC
  8
0
  6
CONTINUOUS
 62
     3
  5
32B
 10
100.0
 20
-100.0
 30
0.0
 40
14.0
 50
334.096044
 51
25.903956
  0
ARC
  8
0
  6
CONTINUOUS
 62
     3
  5
32C
 10
100.0
 20
-100.0
 30
0.0
 40
14.0
 50
34.096044
 51
85.903956
  0
ARC
  8
0
  6
CONTINUOUS
 62
     3
  5
32D
 10
100.0
 20
-100.0
 30
0.0
 40
14.0
 50
154.096044
 51
205.903956
  0
ARC
  8
0
  6
CONTINUOUS
 62
     3
  5
32E
 10
100.0
 20
-100.0
 30
0.0
 40
52.15
 50
31.09874
 51
47.016906
  0
ARC
  8
0
  6
CONTINUOUS
 62
     3
  5
32F
 10
100.0
 20
-65.0
 30
0.0
 40
7.75
 50
97.413674
 51
262.586326
  0
LINE
  8
0
  6
CONTINUOUS
 62
     3
  5
330
 10
101.0
 20
-57.522605
 30
0.0
 11
101.0
 21
-46.259303
 31
0.0
  0
LINE
  8
0
  6
CONTINUOUS
 62
     3
  5
331
 10
99.0
 20
-57.522605
 30
0.0
 11
99.0
 21
-46.259303
 31
0.0
  0
ARC
  8
0
  6
CONTINUOUS
 62
     3
  5
332
 10
100.0
 20
-100.0
 30
0.0
 40
52.15
 50
91.09874
 51
148.90126
  0
ARC
  8
0
  6
CONTINUOUS
 62
     3
  5
333
 10
100.0
 20
-100.0
 30
0.0
 40
52.15
 50
151.09874
 51
208.90126
  0
LINE
  8
0
  6
CONTINUOUS
 62
     3
  5
334
 10
62.713497
 20
-120.372672
 30
0.0
 11
52.959191
 21
-126.004323
 31
0.0
  0
LINE
  8
0
  6
CONTINUOUS
 62
     3
  5
335
 10
63.713497
 20
-122.104723
 30
0.0
 11
53.959191
 21
-127.736374
 31
0.0
  0
LINE
  8
0
  6
CONTINUOUS
 62
     3
  5
336
 10
136.286503
 20
-122.104723
 30
0.0
 11
146.040809
 21
-127.736374
 31
0.0
  0
LINE
  8
0
  6
CONTINUOUS
 62
     3
  5
337
 10
137.286503
 20
-120.372672
 30
0.0
 11
147.040809
 21
-126.004323
 31
0.0
  0
ARC
  8
0
  6
CONTINUOUS
 62
     3
  5
338
 10
100.0
 20
-100.0
 30
0.0
 40
52.15
 50
331.09874
 51
28.90126
  0
ARC
  8
0
  6
CONTINUOUS
 62
     3
  5
339
 10
82.505919
 20
-124.984137
 30
0.0
 40
4.0
 50
290.192792
 51
231.444188
  0
ARC
  8
0
  6
CONTINUOUS
 62
     3
  5
33A
 10
100.0
 20
-100.0
 30
0.0
 40
60.0
 50
238.422047
 51
44.01607
  0
ARC
  8
0
  6
CONTINUOUS
 62
     3
  5
33B
 10
100.0
 20
-100.0
 30
0.0
 40
53.75
 50
241.584874
 51
268.933971
  0
ARC
  8
0
  6
CONTINUOUS
 62
     3
  5
33C
 10
100.0
 20
-100.0
 30
0.0
 40
52.15
 50
242.159356
 51
268.90126
  0
ARC
  8
0
  6
CONTINUOUS
 62
     3
  5
33D
 10
100.0
 20
-100.0
 30
0.0
 40
53.75
 50
211.066029
 51
237.139964
  0
ARC
  8
0
  6
CONTINUOUS
 62
     3
  5
33E
 10
100.0
 20
-100.0
 30
0.0
 40
52.15
 50
211.09874
 51
237.67923
  0
ARC
  8
0
  6
CONTINUOUS
 62
     3
  5
33F
 10
100.0
 20
-100.0
 30
0.0
 40
52.15
 50
57.857659
 51
88.90126
  0
ARC
  8
0
  6
CONTINUOUS
 62
     3
  5
340
 10
100.0
 20
-100.0
 30
0.0
 40
53.75
 50
55.834377
 51
88.933971
  0
ARC
  8
0
  6
CONTINUOUS
 62
     3
  5
341
 10
100.0
 20
-100.0
 30
0.0
 40
60.0
 50
52.333347
 51
233.965416
  0
ARC
  8
0
  6
CONTINUOUS
 62
     3
  5
342
 10
126.040475
 20
-62.392914
 30
0.0
 40
0.6
 50
0.0
 51
90.000003
  0
ARC
  8
0
  6
CONTINUOUS
 62
     3
  5
343
 10
127.990487
 20
-62.392914
 30
0.0
 40
0.6
 50
90.000003
 51
180.000005
  0
ARC
  8
0
  6
CONTINUOUS
 62
     3
  5
344
 10
127.990487
 20
-60.442902
 30
0.0
 40
0.6
 50
179.999995
 51
269.999997
  0
ARC
  8
0
  6
CONTINUOUS
 62
     3
  5
345
 10
126.040475
 20
-60.442902
 30
0.0
 40
0.6
 50
269.999997
 51
0.0
  0
CIRCLE
  8
0
  6
CONTINUOUS
 62
     3
  5
346
 10
127.01545
 20
-61.417939
 30
0.0
 40
2.75
  0
LINE
  8
0
  6
CONTINUOUS
 62
     3
  5
347
 10
126.64045
 20
-62.392914
 30
0.0
 11
126.64045
 21
-62.917939
 31
0.0
  0
LINE
  8
0
  6
CONTINUOUS
 62
     3
  5
348
 10
125.51545
 20
-61.792939
 30
0.0
 11
126.040475
 21
-61.792939
 31
0.0
  0
LINE
  8
0
  6
CONTINUOUS
 62
     3
  5
349
 10
127.990487
 20
-61.792939
 30
0.0
 11
128.51545
 21
-61.792939
 31
0.0
  0
LINE
  8
0
  6
CONTINUOUS
 62
     3
  5
34A
 10
127.39045
 20
-62.392914
 30
0.0
 11
127.39045
 21
-62.917939
 31
0.0
  0
LINE
  8
0
  6
CONTINUOUS
 62
     3
  5
34B
 10
126.64045
 20
-62.917939
 30
0.0
 11
127.39045
 21
-62.917939
 31
0.0
  0
LINE
  8
0
  6
CONTINUOUS
 62
     3
  5
34C
 10
127.990487
 20
-61.042939
 30
0.0
 11
128.51545
 21
-61.042939
 31
0.0
  0
LINE
  8
0
  6
CONTINUOUS
 62
     3
  5
34D
 10
127.39045
 20
-59.917939
 30
0.0
 11
127.39045
 21
-60.442902
 31
0.0
  0
LINE
  8
0
  6
CONTINUOUS
 62
     3
  5
34E
 10
128.51545
 20
-61.042939
 30
0.0
 11
128.51545
 21
-61.792939
 31
0.0
  0
LINE
  8
0
  6
CONTINUOUS
 62
     3
  5
34F
 10
125.51545
 20
-61.042939
 30
0.0
 11
126.040475
 21
-61.042939
 31
0.0
  0
LINE
  8
0
  6
CONTINUOUS
 62
     3
  5
350
 10
126.64045
 20
-59.917939
 30
0.0
 11
126.64045
 21
-60.442902
 31
0.0
  0
LINE
  8
0
  6
CONTINUOUS
 62
     3
  5
351
 10
126.64045
 20
-59.917939
 30
0.0
 11
127.39045
 21
-59.917939
 31
0.0
  0
LINE
  8
0
  6
CONTINUOUS
 62
     3
  5
352
 10
125.51545
 20
-61.042939
 30
0.0
 11
125.51545
 21
-61.792939
 31
0.0
  0
LINE
  8
0
  6
CONTINUOUS
 62
     3
  5
353
 10
127.450164
 20
-55.812371
 30
0.0
 11
115.087886
 21
-54.853672
 31
0.0
  0
ARC
  8
0
  6
CONTINUOUS
 62
     3
  5
354
 10
127.01545
 20
-61.417939
 30
0.0
 40
5.622399
 50
242.281471
 51
335.973457
  0
ARC
  8
0
  6
CONTINUOUS
 62
     3
  5
355
 10
119.353324
 20
-76.000678
 30
0.0
 40
10.850745
 50
62.281471
 51
106.671208
  0
ARC
  8
0
  6
CONTINUOUS
 62
     3
  5
356
 10
128.837881
 20
-55.051236
 30
0.0
 40
1.0
 50
254.026544
 51
295.0
  0
ARC
  8
0
  6
CONTINUOUS
 62
     3
  5
357
 10
133.064064
 20
-64.114313
 30
0.0
 40
1.0
 50
115.0
 51
155.973457
  0
ARC
  8
0
  6
CONTINUOUS
 62
     3
  5
358
 10
127.01545
 20
-61.417939
 30
0.0
 40
5.622399
 50
74.026544
 51
85.565568
  0
CIRCLE
  8
0
  6
CONTINUOUS
 62
     3
  5
359
 10
127.01545
 20
-61.417939
 30
0.0
 40
4.657834
  0
ARC
  8
0
  6
CONTINUOUS
 62
     3
  5
35A
 10
144.771781
 20
-57.220524
 30
0.0
 40
0.3
 50
295.0
 51
2.576887
  0
ARC
  8
0
  6
CONTINUOUS
 62
     3
  5
35B
 10
141.644406
 20
-50.513847
 30
0.0
 40
0.3
 50
47.423112
 51
115.0
  0
ARC
  8
0
  6
CONTINUOUS
 62
     3
  5
35C
 10
135.081589
 20
-57.656636
 30
0.0
 40
10.0
 50
2.576887
 51
47.423112
  0
LINE
  8
0
  6
CONTINUOUS
 62
     3
  5
35D
 10
144.898566
 20
-57.492416
 30
0.0
 11
132.641446
 21
-63.208006
 31
0.0
  0
LINE
  8
0
  6
CONTINUOUS
 62
     3
  5
35E
 10
141.51762
 20
-50.241954
 30
0.0
 11
129.2605
 21
-55.957543
 31
0.0
  0
LINE
  8
0
  6
CONTINUOUS
 62
     3
  5
35F
 10
141.644406
 20
-3.0
 30
0.0
 11
141.644406
 21
2.5
 31
0.0
  0
LINE
  8
0
  6
CONTINUOUS
 62
     3
  5
360
 10
145.071477
 20
-3.0
 30
0.0
 11
145.071477
 21
2.5
 31
0.0
  0
LINE
  8
0
  6
CONTINUOUS
 62
     3
  5
361
 10
132.585484
 20
0.0
 30
0.0
 11
132.594363
 21
-0.508726
 31
0.0
  0
ARC
  8
0
  6
CONTINUOUS
 62
     3
  5
362
 10
133.094287
 20
-0.5
 30
0.0
 40
0.5
 50
181.0
 51
270.0
  0
LINE
  8
0
  6
CONTINUOUS
 62
     3
  5
363
 10
133.094287
 20
-1.0
 30
0.0
 11
140.549408
 21
-1.0
 31
0.0
  0
LINE
  8
0
  6
CONTINUOUS
 62
     3
  5
364
 10
115.087886
 20
-3.0
 30
0.0
 11
145.071477
 21
-3.0
 31
0.0
  0
LINE
  8
0
  6
CONTINUOUS
 62
     3
  5
365
 10
109.215944
 20
-0.1
 30
0.0
 11
109.217689
 21
0.0
 31
0.0
  0
LINE
  8
0
  6
CONTINUOUS
 62
     3
  5
366
 10
140.549408
 20
-1.0
 30
0.0
 11
140.549408
 21
2.5
 31
0.0
  0
ARC
  8
0
  6
CONTINUOUS
 62
     3
  5
367
 10
144.571477
 20
2.5
 30
0.0
 40
0.5
 50
0.0
 51
90.0
  0
ARC
  8
0
  6
CONTINUOUS
 62
     3
  5
368
 10
142.144406
 20
2.5
 30
0.0
 40
0.5
 50
90.0
 51
180.0
  0
ARC
  8
0
  6
CONTINUOUS
 62
     3
  5
369
 10
141.049408
 20
2.5
 30
0.0
 40
0.5
 50
90.0
 51
180.0
  0
LINE
  8
0
  6
CONTINUOUS
 62
     3
  5
36A
 10
132.594363
 20
-0.3
 30
0.0
 11
140.549408
 21
-0.3
 31
0.0
  0
LINE
  8
0
  6
CONTINUOUS
 62
     3
  5
36B
 10
115.087886
 20
-3.0
 30
0.0
 11
115.087886
 21
-1.1
 31
0.0
  0
LINE
  8
0
  6
CONTINUOUS
 62
     3
  5
36C
 10
109.215944
 20
-0.1
 30
0.0
 11
114.087886
 21
-0.1
 31
0.0
  0
ARC
  8
0
  6
CONTINUOUS
 62
     3
  5
36D
 10
114.087886
 20
-1.1
 30
0.0
 40
1.0
 50
0.0
 51
90.0
  0
LINE
  8
0
  6
CONTINUOUS
 62
     3
  5
36E
 10
145.071477
 20
0.0
 30
0.0
 11
157.0
 21
0.0
 31
0.0
  0
TEXT
  8
0
  6
CONTINUOUS
 62
   255
  5
36F
 10
-174.019868
 20
187.138832
 30
0.0
 40
20.0
  1
XVR12●0●
 41
0.910931
  7
MX_NOTE_STANDARD
 11
-174.019868
 21
197.138832
 31
0.0
 73
     2
  0
TEXT
  8
0
  6
CONTINUOUS
 62
   255
  5
370
 10
22.218629
 20
186.619708
 30
0.0
 40
20.0
  1
XVR12●0●S
 41
0.913809
  7
MX_NOTE_STANDARD
 11
22.218629
 21
196.619708
 31
0.0
 73
     2
  0
ARC
  8
0
  6
CONTINUOUS
 62
     3
  5
371
 10
119.353324
 20
-76.000678
 30
0.0
 40
10.850745
 50
106.671208
 51
149.636004
  0
ARC
  8
0
  6
CONTINUOUS
 62
     3
  5
372
 10
108.889294
 20
-69.870304
 30
0.0
 40
1.276802
 50
171.067983
 51
329.636004
  0
LINE
  8
0
  6
CONTINUOUS
 62
     3
  5
373
 10
109.229333
 20
-59.483264
 30
0.0
 11
107.627976
 21
-69.672065
 31
0.0
  0
ARC
  8
0
  6
CONTINUOUS
 62
     3
  5
374
 10
114.662636
 20
-60.337208
 30
0.0
 40
5.5
 50
85.565568
 51
171.067983
  0
CIRCLE
  8
0
  6
CONTINUOUS
 62
     3
  5
375
 10
114.662636
 20
-60.337208
 30
0.0
 40
4.068993
  0
LINE
  8
0
  6
CENTER
 62
    50
  5
377
 10
127.01545
 20
-61.417939
 30
0.0
 11
149.361941
 21
-50.997599
 31
0.0
  0
ARC
  8
0
  6
PHANTOM
 62
   110
  5
379
 10
127.791136
 20
-52.551806
 30
0.0
 40
10.0
 50
62.576887
 51
107.423112
  0
ARC
  8
0
  6
PHANTOM
 62
   110
  5
37A
 10
127.01545
 20
-61.417939
 30
0.0
 40
18.9
 50
0.125656
 51
109.874344
  0
LINE
  8
0
  6
CENTER
 62
    50
  5
37B
 10
127.01545
 20
-61.417939
 30
0.0
 11
129.164417
 21
-36.85514
 31
0.0
  0
ARC
  8
0
  6
PHANTOM
 62
   110
  5
37C
 10
124.886707
 20
-43.296846
 30
0.0
 40
0.3
 50
107.423112
 51
175.0
  0
ARC
  8
0
  6
PHANTOM
 62
   110
  5
37D
 10
132.258548
 20
-43.941798
 30
0.0
 40
0.3
 50
355.0
 51
62.576887
  0
ARC
  8
0
  6
PHANTOM
 62
   110
  5
37E
 10
127.01545
 20
-61.417939
 30
0.0
 40
5.622399
 50
302.281471
 51
35.973457
  0
LINE
  8
0
  6
PHANTOM
 62
   110
  5
37F
 10
132.557406
 20
-43.967945
 30
0.0
 11
131.378691
 21
-57.440717
 31
0.0
  0
ARC
  8
0
  6
PHANTOM
 62
   110
  5
380
 10
132.374886
 20
-57.527873
 30
0.0
 40
1.0
 50
175.0
 51
215.973457
  0
LINE
  8
0
  6
PHANTOM
 62
   110
  5
381
 10
122.378243
 20
-58.238682
 30
0.0
 11
115.366846
 21
-68.465379
 31
0.0
  0
ARC
  8
0
  6
PHANTOM
 62
   110
  5
382
 10
127.01545
 20
-61.417939
 30
0.0
 40
5.622399
 50
134.026544
 51
145.565568
  0
ARC
  8
0
  6
PHANTOM
 62
   110
  5
383
 10
122.412939
 20
-56.656315
 30
0.0
 40
1.0
 50
314.026544
 51
355.0
  0
LINE
  8
0
  6
PHANTOM
 62
   110
  5
384
 10
124.587849
 20
-43.270699
 30
0.0
 11
123.409134
 21
-56.743471
 31
0.0
  0
ARC
  8
0
  6
PHANTOM
 62
   110
  5
385
 10
135.81341
 20
-75.344904
 30
0.0
 40
10.850745
 50
122.281471
 51
166.671208
  0
ARC
  8
0
  6
PHANTOM
 62
   110
  5
386
 10
135.81341
 20
-75.344904
 30
0.0
 40
10.850745
 50
166.671208
 51
209.636004
  0
ARC
  8
0
  6
PHANTOM
 62
   110
  5
387
 10
119.903102
 20
-71.575424
 30
0.0
 40
5.5
 50
145.565568
 51
231.067983
  0
LINE
  8
0
  6
PHANTOM
 62
   110
  5
388
 10
116.446914
 20
-75.853831
 30
0.0
 11
124.469995
 21
-82.335047
 31
0.0
  0
ARC
  8
0
  6
PHANTOM
 62
   110
  5
389
 10
125.272335
 20
-81.341833
 30
0.0
 40
1.276802
 50
231.067983
 51
29.636004
  0
ENDSEC
  0
EOF
